  0
SECTION
  2
HEADER
  9
$ACADVER
  1
AC1015
  9
$ACADMAINTVER
 70
     6
  9
$DWGCODEPAGE
  3
ANSI_1254
  9
$INSBASE
 10
0.0
 20
0.0
 30
0.0
  9
$EXTMIN
 10
0.0
 20
0.0
 30
0.0
  9
$EXTMAX
 10
279.4
 20
215.9
 30
0.0
  9
$LIMMIN
 10
0.0
 20
0.0
  9
$LIMMAX
 10
279.4
 20
215.9
  9
$ORTHOMODE
 70
     0
  9
$REGENMODE
 70
     1
  9
$FILLMODE
 70
     1
  9
$QTEXTMODE
 70
     0
  9
$MIRRTEXT
 70
     1
  9
$LTSCALE
 40
1.0
  9
$ATTMODE
 70
     1
  9
$TEXTSIZE
 40
3.5
  9
$TRACEWID
 40
1.0
  9
$TEXTSTYLE
  7
Standard
  9
$CLAYER
  8
0
  9
$CELTYPE
  6
ByLayer
  9
$CECOLOR
 62
   256
  9
$CELTSCALE
 40
1.0
  9
$DISPSILH
 70
     0
  9
$DIMSCALE
 40
1.0
  9
$DIMASZ
 40
3.5
  9
$DIMEXO
 40
1.0
  9
$DIMDLI
 40
3.75
  9
$DIMRND
 40
0.0
  9
$DIMDLE
 40
0.0
  9
$DIMEXE
 40
1.0
  9
$DIMTP
 40
0.0
  9
$DIMTM
 40
0.0
  9
$DIMTXT
 40
3.5
  9
$DIMCEN
 40
2.5
  9
$DIMTSZ
 40
0.0
  9
$DIMTOL
 70
     0
  9
$DIMLIM
 70
     0
  9
$DIMTIH
 70
     1
  9
$DIMTOH
 70
     1
  9
$DIMSE1
 70
     0
  9
$DIMSE2
 70
     0
  9
$DIMTAD
 70
     1
  9
$DIMZIN
 70
     0
  9
$DIMBLK
  1

  9
$DIMASO
 70
     1
  9
$DIMSHO
 70
     1
  9
$DIMPOST
  1

  9
$DIMAPOST
  1

  9
$DIMALT
 70
     0
  9
$DIMALTD
 70
     3
  9
$DIMALTF
 40
0.0393700787
  9
$DIMLFAC
 40
1.0
  9
$DIMTOFL
 70
     1
  9
$DIMTVP
 40
0.0
  9
$DIMTIX
 70
     0
  9
$DIMSOXD
 70
     0
  9
$DIMSAH
 70
     0
  9
$DIMBLK1
  1

  9
$DIMBLK2
  1

  9
$DIMSTYLE
  2
ISO-25
  9
$DIMCLRD
 70
     0
  9
$DIMCLRE
 70
     0
  9
$DIMCLRT
 70
     0
  9
$DIMTFAC
 40
1.0
  9
$DIMGAP
 40
1.524
  9
$DIMJUST
 70
     0
  9
$DIMSD1
 70
     0
  9
$DIMSD2
 70
     0
  9
$DIMTOLJ
 70
     0
  9
$DIMTZIN
 70
     0
  9
$DIMALTZ
 70
     0
  9
$DIMALTTZ
 70
     0
  9
$DIMUPT
 70
     0
  9
$DIMDEC
 70
     2
  9
$DIMTDEC
 70
     2
  9
$DIMALTU
 70
     2
  9
$DIMALTTD
 70
     3
  9
$DIMTXSTY
  7
Standard
  9
$DIMAUNIT
 70
     0
  9
$DIMADEC
 70
     2
  9
$DIMALTRND
 40
0.0
  9
$DIMAZIN
 70
     0
  9
$DIMDSEP
 70
    44
  9
$DIMATFIT
 70
     3
  9
$DIMFRAC
 70
     0
  9
$DIMLDRBLK
  1

  9
$DIMLUNIT
 70
     2
  9
$DIMLWD
 70
    -2
  9
$DIMLWE
 70
    -2
  9
$DIMTMOVE
 70
     0
  9
$LUNITS
 70
     2
  9
$LUPREC
 70
     2
  9
$SKETCHINC
 40
1.0
  9
$FILLETRAD
 40
10.0
  9
$AUNITS
 70
     0
  9
$AUPREC
 70
     2
  9
$MENU
  1
.
  9
$ELEVATION
 40
0.0
  9
$PELEVATION
 40
0.0
  9
$THICKNESS
 40
0.0
  9
$LIMCHECK
 70
     0
  9
$CHAMFERA
 40
0.0
  9
$CHAMFERB
 40
0.0
  9
$CHAMFERC
 40
0.0
  9
$CHAMFERD
 40
0.0
  9
$SKPOLY
 70
     0
  9
$TDCREATE
 40
2459741.614385393
  9
$TDUCREATE
 40
2459741.489385393
  9
$TDUPDATE
 40
2459741.614385579
  9
$TDUUPDATE
 40
2459741.489385579
  9
$TDINDWG
 40
0.0000000116
  9
$TDUSRTIMER
 40
0.0000000116
  9
$USRTIMER
 70
     1
  9
$ANGBASE
 50
0.0
  9
$ANGDIR
 70
     0
  9
$PDMODE
 70
     0
  9
$PDSIZE
 40
-1.0
  9
$PLINEWID
 40
0.0
  9
$SPLFRAME
 70
     0
  9
$SPLINETYPE
 70
     6
  9
$SPLINESEGS
 70
     8
  9
$HANDSEED
  5
13B
  9
$SURFTAB1
 70
     6
  9
$SURFTAB2
 70
     6
  9
$SURFTYPE
 70
     6
  9
$SURFU
 70
     6
  9
$SURFV
 70
     6
  9
$UCSBASE
  2

  9
$UCSNAME
  2

  9
$UCSORG
 10
0.0
 20
0.0
 30
0.0
  9
$UCSXDIR
 10
1.0
 20
0.0
 30
0.0
  9
$UCSYDIR
 10
0.0
 20
1.0
 30
0.0
  9
$UCSORTHOREF
  2

  9
$UCSORTHOVIEW
 70
     0
  9
$UCSORGTOP
 10
0.0
 20
0.0
 30
0.0
  9
$UCSORGBOTTOM
 10
0.0
 20
0.0
 30
0.0
  9
$UCSORGLEFT
 10
0.0
 20
0.0
 30
0.0
  9
$UCSORGRIGHT
 10
0.0
 20
0.0
 30
0.0
  9
$UCSORGFRONT
 10
0.0
 20
0.0
 30
0.0
  9
$UCSORGBACK
 10
0.0
 20
0.0
 30
0.0
  9
$PUCSBASE
  2

  9
$PUCSNAME
  2

  9
$PUCSORG
 10
0.0
 20
0.0
 30
0.0
  9
$PUCSXDIR
 10
1.0
 20
0.0
 30
0.0
  9
$PUCSYDIR
 10
0.0
 20
1.0
 30
0.0
  9
$PUCSORTHOREF
  2

  9
$PUCSORTHOVIEW
 70
     0
  9
$PUCSORGTOP
 10
0.0
 20
0.0
 30
0.0
  9
$PUCSORGBOTTOM
 10
0.0
 20
0.0
 30
0.0
  9
$PUCSORGLEFT
 10
0.0
 20
0.0
 30
0.0
  9
$PUCSORGRIGHT
 10
0.0
 20
0.0
 30
0.0
  9
$PUCSORGFRONT
 10
0.0
 20
0.0
 30
0.0
  9
$PUCSORGBACK
 10
0.0
 20
0.0
 30
0.0
  9
$USERI1
 70
     0
  9
$USERI2
 70
     0
  9
$USERI3
 70
     0
  9
$USERI4
 70
     0
  9
$USERI5
 70
     0
  9
$USERR1
 40
0.0
  9
$USERR2
 40
0.0
  9
$USERR3
 40
0.0
  9
$USERR4
 40
0.0
  9
$USERR5
 40
0.0
  9
$WORLDVIEW
 70
     1
  9
$SHADEDGE
 70
     3
  9
$SHADEDIF
 70
    70
  9
$TILEMODE
 70
     1
  9
$MAXACTVP
 70
    64
  9
$PINSBASE
 10
0.0
 20
0.0
 30
0.0
  9
$PLIMCHECK
 70
     0
  9
$PEXTMIN
 10
1.0000000000E+20
 20
1.0000000000E+20
 30
1.0000000000E+20
  9
$PEXTMAX
 10
-1.0000000000E+20
 20
-1.0000000000E+20
 30
-1.0000000000E+20
  9
$PLIMMIN
 10
0.0
 20
0.0
  9
$PLIMMAX
 10
420.0
 20
297.0
  9
$UNITMODE
 70
     0
  9
$VISRETAIN
 70
     1
  9
$PLINEGEN
 70
     0
  9
$PSLTSCALE
 70
     1
  9
$TREEDEPTH
 70
  3020
  9
$CMLSTYLE
  2
Standard
  9
$CMLJUST
 70
     0
  9
$CMLSCALE
 40
20.0
  9
$PROXYGRAPHICS
 70
     1
  9
$MEASUREMENT
 70
     1
  9
$CELWEIGHT
370
    -1
  9
$ENDCAPS
280
     0
  9
$JOINSTYLE
280
     0
  9
$LWDISPLAY
290
     1
  9
$INSUNITS
 70
     4
  9
$HYPERLINKBASE
  1

  9
$STYLESHEET
  1

  9
$XEDIT
290
     1
  9
$CEPSNTYPE
380
     0
  9
$PSTYLEMODE
290
     1
  9
$FINGERPRINTGUID
  2
{3c0e28bd-8010-4c6f-96d1-94e7e0c33661}
  9
$VERSIONGUID
  2
{FAEB1C32-E019-11D5-929B-00C0DF256EC4}
  9
$EXTNAMES
290
     1
  9
$PSVPSCALE
 40
0.0
  9
$OLESTARTUP
290
     0
  0
ENDSEC
  0
SECTION
  2
CLASSES
  0
CLASS
  1
ACDBDICTIONARYWDFLT
  2
AcDbDictionaryWithDefault
  3
ObjectDBX Classes
 90
        0
280
     0
281
     0
  0
CLASS
  1
VISUALSTYLE
  2
AcDbVisualStyle
  3
ObjectDBX Classes
 90
     4095
280
     0
281
     0
  0
CLASS
  1
MATERIAL
  2
AcDbMaterial
  3
ObjectDBX Classes
 90
     1153
280
     0
281
     0
  0
CLASS
  1
SCALE
  2
AcDbScale
  3
ObjectDBX Classes
 90
     1153
280
     0
281
     0
  0
CLASS
  1
TABLESTYLE
  2
AcDbTableStyle
  3
ObjectDBX Classes
 90
     4095
280
     0
281
     0
  0
CLASS
  1
MLEADERSTYLE
  2
AcDbMLeaderStyle
  3
ACDB_MLEADERSTYLE_CLASS
 90
     4095
280
     0
281
     0
  0
CLASS
  1
SUN
  2
AcDbSun
  3
SCENEOE
 90
     1153
280
     0
281
     0
  0
CLASS
  1
ACDBPLACEHOLDER
  2
AcDbPlaceHolder
  3
ObjectDBX Classes
 90
        0
280
     0
281
     0
  0
CLASS
  1
LAYOUT
  2
AcDbLayout
  3
ObjectDBX Classes
 90
        0
280
     0
281
     0
  0
ENDSEC
  0
SECTION
  2
TABLES
  0
TABLE
  2
VPORT
  5
8
330
0
100
AcDbSymbolTable
 70
     1
  0
VPORT
  5
29
330
8
100
AcDbSymbolTableRecord
100
AcDbViewportTableRecord
  2
*Active
 70
     0
 10
0.0
 20
0.0
 11
1.0
 21
1.0
 12
139.7
 22
107.95
 13
0.0
 23
0.0
 14
10.0
 24
10.0
 15
10.0
 25
10.0
 16
0.0
 26
0.0
 36
1.0
 17
0.0
 27
0.0
 37
0.0
 40
215.9
 41
1.2941176471
 42
50.0
 43
0.0
 44
0.0
 50
0.0
 51
0.0
 71
     0
 72
  2000
 73
     1
 74
     3
 75
     0
 76
     0
 77
     0
 78
     0
281
     0
 65
     1
110
0.0
120
0.0
130
0.0
111
1.0
121
0.0
131
0.0
112
0.0
122
1.0
132
0.0
 79
     0
146
0.0
  0
ENDTAB
  0
TABLE
  2
LTYPE
  5
5
330
0
100
AcDbSymbolTable
 70
     6
  0
LTYPE
  5
14
330
5
100
AcDbSymbolTableRecord
100
AcDbLinetypeTableRecord
  2
ByBlock
 70
     0
  3

 72
    65
 73
     0
 40
0.0
  0
LTYPE
  5
15
330
5
100
AcDbSymbolTableRecord
100
AcDbLinetypeTableRecord
  2
ByLayer
 70
     0
  3

 72
    65
 73
     0
 40
0.0
  0
LTYPE
  5
16
330
5
100
AcDbSymbolTableRecord
100
AcDbLinetypeTableRecord
  2
Continuous
 70
     0
  3
Solid line
 72
    65
 73
     0
 40
0.0
  0
LTYPE
  5
6E
330
5
100
AcDbSymbolTableRecord
100
AcDbLinetypeTableRecord
  2
HIDDEN
 70
     0
  3
Hidden __ __ __ __ __ __ __ __ __ __ __ __ __ __
 72
    65
 73
     2
 40
1.905
 49
1.27
 74
     0
 49
-0.635
 74
     0
  0
LTYPE
  5
6F
330
5
100
AcDbSymbolTableRecord
100
AcDbLinetypeTableRecord
  2
PHANTOM
 70
     0
  3
Phantom ______  __  __  ______  __  __  ______
 72
    65
 73
     6
 40
12.7
 49
6.35
 74
     0
 49
-1.27
 74
     0
 49
1.27
 74
     0
 49
-1.27
 74
     0
 49
1.27
 74
     0
 49
-1.27
 74
     0
  0
LTYPE
  5
70
330
5
100
AcDbSymbolTableRecord
100
AcDbLinetypeTableRecord
  2
CENTER
 70
     0
  3
Center ____ _ ____ _ ____ _ ____ _ ____ _ ____
 72
    65
 73
     4
 40
10.16
 49
6.35
 74
     0
 49
-1.27
 74
     0
 49
1.27
 74
     0
 49
-1.27
 74
     0
  0
LTYPE
  5
71
330
5
100
AcDbSymbolTableRecord
100
AcDbLinetypeTableRecord
  2
CENTERX2
 70
     0
  3
Center (2x) ________  __  ________  __  _____
 72
    65
 73
     4
 40
20.32
 49
12.7
 74
     0
 49
-2.54
 74
     0
 49
2.54
 74
     0
 49
-2.54
 74
     0
  0
LTYPE
  5
72
330
5
100
AcDbSymbolTableRecord
100
AcDbLinetypeTableRecord
  2
DOT2
 70
     0
  3
Dot (.5x) ........................................
 72
    65
 73
     2
 40
0.635
 49
0.0
 74
     0
 49
-0.635
 74
     0
  0
ENDTAB
  0
TABLE
  2
LAYER
  5
2
330
0
100
AcDbSymbolTable
 70
    17
  0
LAYER
  5
10
330
2
100
AcDbSymbolTableRecord
100
AcDbLayerTableRecord
  2
0
 70
     0
 62
     7
  6
Continuous
370
    -3
390
F
  0
LAYER
  5
73
330
2
100
AcDbSymbolTableRecord
100
AcDbLayerTableRecord
  2
FORMAT
 70
     0
 62
     7
  6
Continuous
370
    -3
390
F
  0
LAYER
  5
74
330
2
100
AcDbSymbolTableRecord
100
AcDbLayerTableRecord
  2
YARDIMCI_GEOMETRI
 70
     0
 62
    -6
  6
Continuous
290
     0
370
    -3
390
F
  0
LAYER
  5
75
330
2
100
AcDbSymbolTableRecord
100
AcDbLayerTableRecord
  2
SAYFA_CERCEVESI
 70
     0
 62
     7
  6
Continuous
370
    25
390
F
  0
LAYER
  5
76
330
2
100
AcDbSymbolTableRecord
100
AcDbLayerTableRecord
  2
ANTET
 70
     0
 62
     7
  6
Continuous
370
    -3
390
F
  0
LAYER
  5
77
330
2
100
AcDbSymbolTableRecord
100
AcDbLayerTableRecord
  2
OLCU
 70
     0
 62
   150
  6
Continuous
370
    -3
390
F
  0
LAYER
  5
78
330
2
100
AcDbSymbolTableRecord
100
AcDbLayerTableRecord
  2
METIN
 70
     0
 62
    96
  6
Continuous
370
    -3
390
F
  0
LAYER
  5
79
330
2
100
AcDbSymbolTableRecord
100
AcDbLayerTableRecord
  2
BALON
 70
     0
 62
     5
  6
Continuous
370
    -3
390
F
  0
LAYER
  5
7A
330
2
100
AcDbSymbolTableRecord
100
AcDbLayerTableRecord
  2
VURGU
 70
     0
 62
     7
  6
Continuous
370
    -3
390
F
  0
LAYER
  5
7B
330
2
100
AcDbSymbolTableRecord
100
AcDbLayerTableRecord
  2
SILIK
 70
     0
 62
     7
  6
Continuous
370
    -3
390
F
  0
LAYER
  5
7C
330
2
100
AcDbSymbolTableRecord
100
AcDbLayerTableRecord
  2
MODEL
 70
     0
 62
     7
  6
Continuous
370
    -3
390
F
  0
LAYER
  5
7D
330
2
100
AcDbSymbolTableRecord
100
AcDbLayerTableRecord
  2
DETAYLANDıRMA
 70
     0
 62
   190
  6
Continuous
370
    -3
390
F
  0
LAYER
  5
7E
330
2
100
AcDbSymbolTableRecord
100
AcDbLayerTableRecord
  2
TOLERANS
 70
     0
 62
   230
  6
Continuous
370
    -3
390
F
  0
LAYER
  5
7F
330
2
100
AcDbSymbolTableRecord
100
AcDbLayerTableRecord
  2
MERKEZ_CIZGILERI
 70
     0
 62
    30
  6
Continuous
370
    -3
390
F
  0
LAYER
  5
80
330
2
100
AcDbSymbolTableRecord
100
AcDbLayerTableRecord
  2
KESIT-DETAY_CIZGILERI
 70
     0
 62
     7
  6
Continuous
370
    -3
390
F
  0
LAYER
  5
81
330
2
100
AcDbSymbolTableRecord
100
AcDbLayerTableRecord
  2
\U+041E\U+0421\U+0415\U+0412\U+042B\U+0415
 70
     0
 62
     7
  6
Continuous
370
    -3
390
F
  0
LAYER
  5
82
330
2
100
AcDbSymbolTableRecord
100
AcDbLayerTableRecord
  2
\U+0412\U+041E\U+0414\U+042F\U+041D\U+042B\U+0415_\U+0417\U+041D\U+0410\U+041A\U+0418
 70
     0
 62
    11
  6
Continuous
370
    -3
390
F
  0
ENDTAB
  0
TABLE
  2
STYLE
  5
3
330
0
100
AcDbSymbolTable
 70
     1
  0
STYLE
  5
11
330
3
100
AcDbSymbolTableRecord
100
AcDbTextStyleTableRecord
  2
Standard
 70
     0
 40
0.0
 41
1.0
 50
0.0
 71
     0
 42
3.5
  3
txt
  4

  0
ENDTAB
  0
TABLE
  2
VIEW
  5
6
330
0
100
AcDbSymbolTable
 70
     0
  0
ENDTAB
  0
TABLE
  2
UCS
  5
7
330
0
100
AcDbSymbolTable
 70
     0
  0
ENDTAB
  0
TABLE
  2
APPID
  5
9
330
0
100
AcDbSymbolTable
 70
     1
  0
APPID
  5
12
330
9
100
AcDbSymbolTableRecord
100
AcDbRegAppTableRecord
  2
ACAD
 70
     0
  0
ENDTAB
  0
TABLE
  2
DIMSTYLE
  5
A
330
0
100
AcDbSymbolTable
 70
     1
100
AcDbDimStyleTable
  0
DIMSTYLE
105
27
330
A
100
AcDbSymbolTableRecord
100
AcDbDimStyleTableRecord
  2
ISO-25
 70
     0
 41
2.5
 42
0.625
 43
3.75
 44
1.25
 73
     0
 74
     0
 77
     1
 78
     8
140
2.5
141
2.5
143
0.0393700787
147
0.625
171
     3
172
     1
178
     0
271
     2
272
     2
274
     3
278
    44
283
     0
284
     8
340
11
  0
ENDTAB
  0
TABLE
  2
BLOCK_RECORD
  5
1
330
0
100
AcDbSymbolTable
 70
     5
  0
BLOCK_RECORD
  5
1F
330
1
100
AcDbSymbolTableRecord
100
AcDbBlockTableRecord
  2
*Model_Space
340
22
  0
BLOCK_RECORD
  5
1B
330
1
100
AcDbSymbolTableRecord
100
AcDbBlockTableRecord
  2
*Paper_Space
340
1E
  0
BLOCK_RECORD
  5
23
330
1
100
AcDbSymbolTableRecord
100
AcDbBlockTableRecord
  2
*Paper_Space0
340
26
  0
BLOCK_RECORD
  5
C4
330
1
100
AcDbSymbolTableRecord
100
AcDbBlockTableRecord
  2
SW_CENTERMARKSYMBOL_0
340
0
102
{BLKREFS
331
CF
102
}
  0
BLOCK_RECORD
  5
EF
330
1
100
AcDbSymbolTableRecord
100
AcDbBlockTableRecord
  2
SW_CENTERMARKSYMBOL_1
340
0
102
{BLKREFS
331
FA
102
}
  0
BLOCK_RECORD
  5
FB
330
1
100
AcDbSymbolTableRecord
100
AcDbBlockTableRecord
  2
SW_CENTERMARKSYMBOL_2
340
0
102
{BLKREFS
331
106
102
}
  0
BLOCK_RECORD
  5
107
330
1
100
AcDbSymbolTableRecord
100
AcDbBlockTableRecord
  2
SW_CENTERMARKSYMBOL_3
340
0
102
{BLKREFS
331
112
102
}
  0
ENDTAB
  0
ENDSEC
  0
SECTION
  2
BLOCKS
  0
BLOCK
  5
20
330
1F
100
AcDbEntity
  8
0
100
AcDbBlockBegin
  2
*Model_Space
 70
     0
 10
0.0
 20
0.0
 30
0.0
  3
*Model_Space
  1

  0
ENDBLK
  5
21
330
1F
100
AcDbEntity
  8
0
100
AcDbBlockEnd
  0
BLOCK
  5
1C
330
1B
100
AcDbEntity
 67
     1
  8
0
100
AcDbBlockBegin
  2
*Paper_Space
 70
     0
 10
0.0
 20
0.0
 30
0.0
  3
*Paper_Space
  1

  0
ENDBLK
  5
1D
330
1B
100
AcDbEntity
 67
     1
  8
0
100
AcDbBlockEnd
  0
BLOCK
  5
24
330
23
100
AcDbEntity
  8
0
100
AcDbBlockBegin
  2
*Paper_Space0
 70
     0
 10
0.0
 20
0.0
 30
0.0
  3
*Paper_Space0
  1

  0
ENDBLK
  5
25
330
23
100
AcDbEntity
  8
0
100
AcDbBlockEnd
  0
BLOCK
  5
C5
330
C4
100
AcDbEntity
  8
0
100
AcDbBlockBegin
  2
SW_CENTERMARKSYMBOL_0
 70
     0
 10
0.0
 20
0.0
 30
0.0
  3
SW_CENTERMARKSYMBOL_0
  1

  0
LINE
  5
C7
330
C4
100
AcDbEntity
  8
FORMAT
 62
     0
100
AcDbLine
 10
0.0
 20
0.0
 30
0.0
 11
0.0
 21
2.5
 31
0.0
  0
LINE
  5
C8
330
C4
100
AcDbEntity
  8
FORMAT
 62
     0
100
AcDbLine
 10
0.0
 20
0.0
 30
0.0
 11
-2.5
 21
0.0
 31
0.0
  0
LINE
  5
C9
330
C4
100
AcDbEntity
  8
FORMAT
 62
     0
100
AcDbLine
 10
0.0
 20
0.0
 30
0.0
 11
0.0
 21
-2.5
 31
0.0
  0
LINE
  5
CA
330
C4
100
AcDbEntity
  8
FORMAT
 62
     0
100
AcDbLine
 10
0.0
 20
0.0
 30
0.0
 11
2.5
 21
0.0
 31
0.0
  0
LINE
  5
CB
330
C4
100
AcDbEntity
  8
FORMAT
 62
     0
100
AcDbLine
 10
0.0
 20
5.0
 30
0.0
 11
0.0
 21
15.5
 31
0.0
  0
LINE
  5
CC
330
C4
100
AcDbEntity
  8
FORMAT
 62
     0
100
AcDbLine
 10
-5.0
 20
0.0
 30
0.0
 11
-15.5
 21
0.0
 31
0.0
  0
LINE
  5
CD
330
C4
100
AcDbEntity
  8
FORMAT
 62
     0
100
AcDbLine
 10
0.0
 20
-5.0
 30
0.0
 11
0.0
 21
-15.5
 31
0.0
  0
LINE
  5
CE
330
C4
100
AcDbEntity
  8
FORMAT
 62
     0
100
AcDbLine
 10
5.0
 20
0.0
 30
0.0
 11
15.5
 21
0.0
 31
0.0
  0
ENDBLK
  5
C6
330
C4
100
AcDbEntity
  8
0
100
AcDbBlockEnd
  0
BLOCK
  5
F0
330
EF
100
AcDbEntity
  8
0
100
AcDbBlockBegin
  2
SW_CENTERMARKSYMBOL_1
 70
     0
 10
0.0
 20
0.0
 30
0.0
  3
SW_CENTERMARKSYMBOL_1
  1

  0
LINE
  5
F2
330
EF
100
AcDbEntity
  8
FORMAT
 62
     0
100
AcDbLine
 10
0.0
 20
0.0
 30
0.0
 11
0.0
 21
2.5
 31
0.0
  0
LINE
  5
F3
330
EF
100
AcDbEntity
  8
FORMAT
 62
     0
100
AcDbLine
 10
0.0
 20
0.0
 30
0.0
 11
-2.5
 21
0.0
 31
0.0
  0
LINE
  5
F4
330
EF
100
AcDbEntity
  8
FORMAT
 62
     0
100
AcDbLine
 10
0.0
 20
0.0
 30
0.0
 11
0.0
 21
-2.5
 31
0.0
  0
LINE
  5
F5
330
EF
100
AcDbEntity
  8
FORMAT
 62
     0
100
AcDbLine
 10
0.0
 20
0.0
 30
0.0
 11
2.5
 21
0.0
 31
0.0
  0
LINE
  5
F6
330
EF
100
AcDbEntity
  8
FORMAT
 62
     0
100
AcDbLine
 10
0.0
 20
5.0
 30
0.0
 11
0.0
 21
18.5
 31
0.0
  0
LINE
  5
F7
330
EF
100
AcDbEntity
  8
FORMAT
 62
     0
100
AcDbLine
 10
-5.0
 20
0.0
 30
0.0
 11
-18.5
 21
0.0
 31
0.0
  0
LINE
  5
F8
330
EF
100
AcDbEntity
  8
FORMAT
 62
     0
100
AcDbLine
 10
0.0
 20
-5.0
 30
0.0
 11
0.0
 21
-18.5
 31
0.0
  0
LINE
  5
F9
330
EF
100
AcDbEntity
  8
FORMAT
 62
     0
100
AcDbLine
 10
5.0
 20
0.0
 30
0.0
 11
18.5
 21
0.0
 31
0.0
  0
ENDBLK
  5
F1
330
EF
100
AcDbEntity
  8
0
100
AcDbBlockEnd
  0
BLOCK
  5
FC
330
FB
100
AcDbEntity
  8
0
100
AcDbBlockBegin
  2
SW_CENTERMARKSYMBOL_2
 70
     0
 10
0.0
 20
0.0
 30
0.0
  3
SW_CENTERMARKSYMBOL_2
  1

  0
LINE
  5
FE
330
FB
100
AcDbEntity
  8
FORMAT
 62
     0
100
AcDbLine
 10
0.0
 20
0.0
 30
0.0
 11
0.0
 21
2.5
 31
0.0
  0
LINE
  5
FF
330
FB
100
AcDbEntity
  8
FORMAT
 62
     0
100
AcDbLine
 10
0.0
 20
0.0
 30
0.0
 11
-2.5
 21
0.0
 31
0.0
  0
LINE
  5
100
330
FB
100
AcDbEntity
  8
FORMAT
 62
     0
100
AcDbLine
 10
0.0
 20
0.0
 30
0.0
 11
0.0
 21
-2.5
 31
0.0
  0
LINE
  5
101
330
FB
100
AcDbEntity
  8
FORMAT
 62
     0
100
AcDbLine
 10
0.0
 20
0.0
 30
0.0
 11
2.5
 21
0.0
 31
0.0
  0
LINE
  5
102
330
FB
100
AcDbEntity
  8
FORMAT
 62
     0
100
AcDbLine
 10
0.0
 20
5.0
 30
0.0
 11
0.0
 21
9.5
 31
0.0
  0
LINE
  5
103
330
FB
100
AcDbEntity
  8
FORMAT
 62
     0
100
AcDbLine
 10
-5.0
 20
0.0
 30
0.0
 11
-9.5
 21
0.0
 31
0.0
  0
LINE
  5
104
330
FB
100
AcDbEntity
  8
FORMAT
 62
     0
100
AcDbLine
 10
0.0
 20
-5.0
 30
0.0
 11
0.0
 21
-9.5
 31
0.0
  0
LINE
  5
105
330
FB
100
AcDbEntity
  8
FORMAT
 62
     0
100
AcDbLine
 10
5.0
 20
0.0
 30
0.0
 11
9.5
 21
0.0
 31
0.0
  0
ENDBLK
  5
FD
330
FB
100
AcDbEntity
  8
0
100
AcDbBlockEnd
  0
BLOCK
  5
108
330
107
100
AcDbEntity
  8
0
100
AcDbBlockBegin
  2
SW_CENTERMARKSYMBOL_3
 70
     0
 10
0.0
 20
0.0
 30
0.0
  3
SW_CENTERMARKSYMBOL_3
  1

  0
LINE
  5
10A
330
107
100
AcDbEntity
  8
FORMAT
 62
     0
100
AcDbLine
 10
0.0
 20
0.0
 30
0.0
 11
0.0
 21
2.5
 31
0.0
  0
LINE
  5
10B
330
107
100
AcDbEntity
  8
FORMAT
 62
     0
100
AcDbLine
 10
0.0
 20
0.0
 30
0.0
 11
-2.5
 21
0.0
 31
0.0
  0
LINE
  5
10C
330
107
100
AcDbEntity
  8
FORMAT
 62
     0
100
AcDbLine
 10
0.0
 20
0.0
 30
0.0
 11
0.0
 21
-2.5
 31
0.0
  0
LINE
  5
10D
330
107
100
AcDbEntity
  8
FORMAT
 62
     0
100
AcDbLine
 10
0.0
 20
0.0
 30
0.0
 11
2.5
 21
0.0
 31
0.0
  0
LINE
  5
10E
330
107
100
AcDbEntity
  8
FORMAT
 62
     0
100
AcDbLine
 10
0.0
 20
5.0
 30
0.0
 11
0.0
 21
9.5
 31
0.0
  0
LINE
  5
10F
330
107
100
AcDbEntity
  8
FORMAT
 62
     0
100
AcDbLine
 10
-5.0
 20
0.0
 30
0.0
 11
-9.5
 21
0.0
 31
0.0
  0
LINE
  5
110
330
107
100
AcDbEntity
  8
FORMAT
 62
     0
100
AcDbLine
 10
0.0
 20
-5.0
 30
0.0
 11
0.0
 21
-9.5
 31
0.0
  0
LINE
  5
111
330
107
100
AcDbEntity
  8
FORMAT
 62
     0
100
AcDbLine
 10
5.0
 20
0.0
 30
0.0
 11
9.5
 21
0.0
 31
0.0
  0
ENDBLK
  5
109
330
107
100
AcDbEntity
  8
0
100
AcDbBlockEnd
  0
ENDSEC
  0
SECTION
  2
ENTITIES
  0
LINE
  5
83
330
1F
100
AcDbEntity
  8
0
  6
Continuous
 62
     7
370
    25
100
AcDbLine
 10
173.8958311684
 20
60.4564555559
 30
0.0
 11
203.8958311684
 21
60.4564555559
 31
0.0
  0
LINE
  5
84
330
1F
100
AcDbEntity
  8
0
  6
Continuous
 62
     7
370
    25
100
AcDbLine
 10
83.8958311684
 20
60.4564555559
 30
0.0
 11
113.8958311684
 21
60.4564555559
 31
0.0
  0
LINE
  5
85
330
1F
100
AcDbEntity
  8
0
  6
Continuous
 62
     7
370
    25
100
AcDbLine
 10
86.9203791172
 20
114.4564555559
 30
0.0
 11
83.8958311684
 21
114.4564555559
 31
0.0
  0
LINE
  5
86
330
1F
100
AcDbEntity
  8
0
  6
Continuous
 62
     7
370
    25
100
AcDbLine
 10
127.9104256662
 20
114.4564555559
 30
0.0
 11
100.878250732
 21
114.4564555559
 31
0.0
  0
LINE
  5
87
330
1F
100
AcDbEntity
  8
0
  6
Continuous
 62
     7
370
    25
100
AcDbLine
 10
186.9203791172
 20
114.4564555559
 30
0.0
 11
159.8955931783
 21
114.4564555559
 31
0.0
  0
LINE
  5
88
330
1F
100
AcDbEntity
  8
0
  6
Continuous
 62
     7
370
    25
100
AcDbLine
 10
203.8958311684
 20
114.4564555559
 30
0.0
 11
200.878250732
 21
114.4564555559
 31
0.0
  0
LINE
  5
89
330
1F
100
AcDbEntity
  8
0
  6
Continuous
 62
     7
370
    25
100
AcDbLine
 10
127.8958311684
 20
162.4564555559
 30
0.0
 11
127.8958311684
 21
114.4477917691
 31
0.0
  0
LINE
  5
8A
330
1F
100
AcDbEntity
  8
0
  6
Continuous
 62
     7
370
    25
100
AcDbLine
 10
159.8958311684
 20
114.45631551
 30
0.0
 11
159.8958311684
 21
162.4564555559
 31
0.0
  0
LINE
  5
8B
330
1F
100
AcDbEntity
  8
0
  6
Continuous
 62
     7
370
    25
100
AcDbLine
 10
100.8958311684
 20
114.4519163627
 30
0.0
 11
100.8958311684
 21
129.4564555559
 31
0.0
  0
LINE
  5
8C
330
1F
100
AcDbEntity
  8
0
  6
Continuous
 62
     7
370
    25
100
AcDbLine
 10
86.8958311684
 20
129.4564555559
 30
0.0
 11
86.8958311684
 21
114.450104335
 31
0.0
  0
LINE
  5
8D
330
1F
100
AcDbEntity
  8
0
  6
Continuous
 62
     7
370
    25
100
AcDbLine
 10
200.8958311684
 20
114.4519163627
 30
0.0
 11
200.8958311684
 21
129.4564555559
 31
0.0
  0
LINE
  5
8E
330
1F
100
AcDbEntity
  8
0
  6
Continuous
 62
     7
370
    25
100
AcDbLine
 10
186.8958311684
 20
129.4564555559
 30
0.0
 11
186.8958311684
 21
114.450104335
 31
0.0
  0
LINE
  5
8F
330
1F
100
AcDbEntity
  8
0
  6
Continuous
 62
     7
370
    25
100
AcDbLine
 10
203.8958311684
 20
89.4564555559
 30
0.0
 11
83.8958311684
 21
89.4564555559
 31
0.0
  0
LINE
  5
90
330
1F
100
AcDbEntity
  8
0
  6
Continuous
 62
     7
370
    25
100
AcDbLine
 10
83.8958311684
 20
96.4564555559
 30
0.0
 11
83.8958311684
 21
89.4564555559
 31
0.0
  0
LINE
  5
91
330
1F
100
AcDbEntity
  8
0
  6
Continuous
 62
     7
370
    25
100
AcDbLine
 10
203.8958311684
 20
96.4564555559
 30
0.0
 11
83.8958311684
 21
96.4564555559
 31
0.0
  0
LINE
  5
92
330
1F
100
AcDbEntity
  8
0
  6
Continuous
 62
     7
370
    25
100
AcDbLine
 10
203.8958311684
 20
96.4564555559
 30
0.0
 11
203.8958311684
 21
89.4564555559
 31
0.0
  0
LINE
  5
93
330
1F
100
AcDbEntity
  8
0
  6
Continuous
 62
     7
370
    25
100
AcDbLine
 10
83.8958311684
 20
85.4564555559
 30
0.0
 11
83.8958311684
 21
78.4564555559
 31
0.0
  0
LINE
  5
94
330
1F
100
AcDbEntity
  8
0
  6
Continuous
 62
     7
370
    25
100
AcDbLine
 10
203.8958311684
 20
85.4564555559
 30
0.0
 11
83.8958311684
 21
85.4564555559
 31
0.0
  0
LINE
  5
95
330
1F
100
AcDbEntity
  8
0
  6
Continuous
 62
     7
370
    25
100
AcDbLine
 10
203.8958311684
 20
85.4564555559
 30
0.0
 11
203.8958311684
 21
78.4564555559
 31
0.0
  0
LINE
  5
96
330
1F
100
AcDbEntity
  8
0
  6
Continuous
 62
     7
370
    25
100
AcDbLine
 10
203.8958311684
 20
78.4564555559
 30
0.0
 11
83.8958311684
 21
78.4564555559
 31
0.0
  0
SPLINE
  5
97
330
1F
100
AcDbEntity
  8
0
  6
Continuous
 62
     7
370
    25
100
AcDbSpline
210
0.0
220
0.0
230
1.0
 70
     8
 71
     3
 72
    27
 73
    23
 74
     0
 42
0.00000001
 43
0.00000001
 40
0.0
 40
0.0
 40
0.0
 40
0.0
 40
0.0316993369375115
 40
0.0828414890672673
 40
0.1354421134046146
 40
0.1871063414210102
 40
0.2401870949624489
 40
0.2933273046697489
 40
0.3479887535107551
 40
0.4013660446026011
 40
0.456379131815011
 40
0.5082502102925001
 40
0.5616826171092273
 40
0.6126810215126139
 40
0.6651018897110961
 40
0.7171854392605647
 40
0.7707008523099129
 40
0.8241514432878653
 40
0.8791718496131801
 40
0.9321781212326397
 40
0.986812922794443
 40
1.0
 40
1.0
 40
1.0
 40
1.0
 10
186.9203791172492
 20
114.450103011133
 30
0.0
 10
186.9174766886595
 20
114.4508485953991
 30
0.0
 10
186.9098916244433
 20
114.452797068673
 30
0.0
 10
187.1115013824767
 20
114.4008348271259
 30
0.0
 10
187.4907192054749
 20
114.3071000103664
 30
0.0
 10
188.0541582965644
 20
114.1771555006753
 30
0.0
 10
188.7735910812985
 20
114.0277468124633
 30
0.0
 10
189.6492333261057
 20
113.8713212303354
 30
0.0
 10
190.6482384996149
 20
113.72773460227
 30
0.0
 10
191.7551109345206
 20
113.6127420407681
 30
0.0
 10
192.9082427913153
 20
113.5431542126256
 30
0.0
 10
194.0907032074612
 20
113.5252658917807
 30
0.0
 10
195.238455664209
 20
113.5596009850076
 30
0.0
 10
196.3506397917658
 20
113.641315440708
 30
0.0
 10
197.3856774805748
 20
113.7595482818388
 30
0.0
 10
198.3405169272576
 20
113.9043799148192
 30
0.0
 10
199.1797694152839
 20
114.0596304766412
 30
0.0
 10
199.8851162596376
 20
114.2098975994979
 30
0.0
 10
200.4229981512593
 20
114.3366804608114
 30
0.0
 10
200.7621953656613
 20
114.4217486689506
 30
0.0
 10
200.9104076336938
 20
114.4602240318568
 30
0.0
 10
200.8834854068363
 20
114.4532631462787
 30
0.0
 10
200.8782507319707
 20
114.4519096931275
 30
0.0
  0
SPLINE
  5
98
330
1F
100
AcDbEntity
  8
0
  6
Continuous
 62
     7
370
    25
100
AcDbSpline
210
0.0
220
0.0
230
1.0
 70
     8
 71
     3
 72
    21
 73
    17
 74
     0
 42
0.00000001
 43
0.00000001
 40
0.0
 40
0.0
 40
0.0
 40
0.0
 40
0.092322815593324
 40
0.1877818445415442
 40
0.2800016215669848
 40
0.3743866266012089
 40
0.477618153191792
 40
0.583292821287145
 40
0.6400385850935078
 40
0.696778873436108
 40
0.755520682762553
 40
0.814254541276348
 40
0.8655794986523558
 40
0.9169007669585768
 40
0.9701588453608687
 40
1.0
 40
1.0
 40
1.0
 40
1.0
 10
143.8958311684049
 20
109.205018726841
 30
0.0
 10
143.1015342747398
 20
109.2305646369129
 30
0.0
 10
141.4859581590473
 20
109.2825242536442
 30
0.0
 10
139.1585264757485
 20
109.6812571528449
 30
0.0
 10
136.9585486133035
 20
110.2545734158226
 30
0.0
 10
134.8806411963866
 20
110.97497735633
 30
0.0
 10
132.9342609078127
 20
111.7920205100534
 30
0.0
 10
131.4631275754593
 20
112.5004646740689
 30
0.0
 10
130.4204080063707
 20
113.0385816198273
 30
0.0
 10
129.7001716130569
 20
113.4259254904485
 30
0.0
 10
129.0823880290267
 20
113.7692329448311
 30
0.0
 10
128.6001651232817
 20
114.0444634641946
 30
0.0
 10
128.2499632133945
 20
114.2477457370489
 30
0.0
 10
128.02123162514
 20
114.3822366520818
 30
0.0
 10
127.9027433518141
 20
114.4522953102182
 30
0.0
 10
127.9083958419825
 20
114.4489815797274
 30
0.0
 10
127.9104256661702
 20
114.4477916103331
 30
0.0
  0
SPLINE
  5
99
330
1F
100
AcDbEntity
  8
0
  6
Continuous
 62
     7
370
    25
100
AcDbSpline
210
0.0
220
0.0
230
1.0
 70
     8
 71
     3
 72
    21
 73
    17
 74
     0
 42
0.00000001
 43
0.00000001
 40
0.0
 40
0.0
 40
0.0
 40
0.0
 40
0.0911708846269597
 40
0.1851940918934754
 40
0.2757649971917574
 40
0.3684889407231481
 40
0.4690592022909258
 40
0.5719577733816303
 40
0.6281726843596852
 40
0.6843835798915351
 40
0.7423823363782013
 40
0.8003706957123018
 40
0.8493862728187723
 40
0.8983954974033205
 40
0.9491995132439475
 40
1.0
 40
1.0
 40
1.0
 40
1.0
 10
159.8955931783372
 20
114.4563150185803
 30
0.0
 10
159.8621873031774
 20
114.4364503150612
 30
0.0
 10
159.7943304348424
 20
114.3960994317282
 30
0.0
 10
159.252012495447
 20
114.077979543199
 30
0.0
 10
158.4104003787536
 20
113.5994404827065
 30
0.0
 10
157.2467626650662
 20
112.9677858163439
 30
0.0
 10
155.7455956901312
 20
112.2090814329334
 30
0.0
 10
154.1919932597587
 20
111.5051314572254
 30
0.0
 10
152.7677953540753
 20
110.936944839031
 30
0.0
 10
151.5679156849725
 20
110.508651190164
 30
0.0
 10
150.2856622836617
 20
110.1124542343636
 30
0.0
 10
148.9954166038451
 20
109.7831606685447
 30
0.0
 10
147.7288343520187
 20
109.5294538520117
 30
0.0
 10
146.4873800248149
 20
109.3476700786693
 30
0.0
 10
145.2058774658951
 20
109.2282640175427
 30
0.0
 10
144.3325031557729
 20
109.2127669776525
 30
0.0
 10
143.8958311684049
 20
109.205018726841
 30
0.0
  0
SPLINE
  5
9A
330
1F
100
AcDbEntity
  8
0
  6
Continuous
 62
     7
370
    25
100
AcDbSpline
210
0.0
220
0.0
230
1.0
 70
     8
 71
     3
 72
    27
 73
    23
 74
     0
 42
0.00000001
 43
0.00000001
 40
0.0
 40
0.0
 40
0.0
 40
0.0
 40
0.0316993369375115
 40
0.0828414890672673
 40
0.1354421134046146
 40
0.1871063414210102
 40
0.2401870949624489
 40
0.2933273046697489
 40
0.3479887535107551
 40
0.4013660446026011
 40
0.456379131815011
 40
0.5082502102925001
 40
0.5616826171092273
 40
0.6126810215126139
 40
0.6651018897110961
 40
0.7171854392605647
 40
0.7707008523099129
 40
0.8241514432878653
 40
0.8791718496131801
 40
0.9321781212326397
 40
0.986812922794443
 40
1.0
 40
1.0
 40
1.0
 40
1.0
 10
86.92037911724925
 20
114.450103011133
 30
0.0
 10
86.91747668865953
 20
114.4508485953991
 30
0.0
 10
86.90989162444332
 20
114.452797068673
 30
0.0
 10
87.1115013824767
 20
114.4008348271259
 30
0.0
 10
87.49071920547492
 20
114.3071000103664
 30
0.0
 10
88.05415829656441
 20
114.1771555006753
 30
0.0
 10
88.7735910812985
 20
114.0277468124633
 30
0.0
 10
89.64923332610576
 20
113.8713212303354
 30
0.0
 10
90.64823849961492
 20
113.72773460227
 30
0.0
 10
91.75511093452067
 20
113.6127420407681
 30
0.0
 10
92.90824279131529
 20
113.5431542126256
 30
0.0
 10
94.09070320746127
 20
113.5252658917807
 30
0.0
 10
95.23845566420903
 20
113.5596009850076
 30
0.0
 10
96.3506397917658
 20
113.641315440708
 30
0.0
 10
97.38567748057488
 20
113.7595482818388
 30
0.0
 10
98.3405169272576
 20
113.9043799148192
 30
0.0
 10
99.17976941528387
 20
114.0596304766412
 30
0.0
 10
99.88511625963761
 20
114.2098975994979
 30
0.0
 10
100.4229981512594
 20
114.3366804608114
 30
0.0
 10
100.7621953656613
 20
114.4217486689506
 30
0.0
 10
100.9104076336938
 20
114.4602240318568
 30
0.0
 10
100.8834854068363
 20
114.4532631462787
 30
0.0
 10
100.8782507319707
 20
114.4519096931275
 30
0.0
  0
LINE
  5
9B
330
1F
100
AcDbEntity
  8
0
  6
Continuous
 62
     7
370
    25
100
AcDbLine
 10
113.8958311684
 20
77.4564555559
 30
0.0
 11
173.8958311684
 21
77.4564555559
 31
0.0
  0
LINE
  5
9C
330
1F
100
AcDbEntity
  8
0
  6
Continuous
 62
     7
370
    25
100
AcDbLine
 10
113.8958311684
 20
60.4564555559
 30
0.0
 11
113.8958311684
 21
77.4564555559
 31
0.0
  0
LINE
  5
9D
330
1F
100
AcDbEntity
  8
0
  6
Continuous
 62
     7
370
    25
100
AcDbLine
 10
173.8958311684
 20
77.4564555559
 30
0.0
 11
173.8958311684
 21
60.4564555559
 31
0.0
  0
LINE
  5
9E
330
1F
100
AcDbEntity
  8
0
  6
Continuous
 62
     7
370
    25
100
AcDbLine
 10
83.8958311684
 20
78.4564555559
 30
0.0
 11
83.8958311684
 21
60.4564555559
 31
0.0
  0
LINE
  5
9F
330
1F
100
AcDbEntity
  8
0
  6
Continuous
 62
     7
370
    25
100
AcDbLine
 10
83.8958311684
 20
114.4564555559
 30
0.0
 11
83.8958311684
 21
96.4564555559
 31
0.0
  0
LINE
  5
A0
330
1F
100
AcDbEntity
  8
0
  6
Continuous
 62
     7
370
    25
100
AcDbLine
 10
203.8958311684
 20
78.4564555559
 30
0.0
 11
203.8958311684
 21
60.4564555559
 31
0.0
  0
LINE
  5
A1
330
1F
100
AcDbEntity
  8
0
  6
Continuous
 62
     7
370
    25
100
AcDbLine
 10
203.8958311684
 20
114.4564555559
 30
0.0
 11
203.8958311684
 21
96.4564555559
 31
0.0
  0
LINE
  5
A2
330
1F
100
AcDbEntity
  8
0
  6
Continuous
 62
     7
370
    25
100
AcDbLine
 10
83.8958311684
 20
89.4564555559
 30
0.0
 11
83.8958311684
 21
85.4564555559
 31
0.0
  0
LINE
  5
A3
330
1F
100
AcDbEntity
  8
0
  6
Continuous
 62
     7
370
    25
100
AcDbLine
 10
203.8958311684
 20
89.4564555559
 30
0.0
 11
203.8958311684
 21
85.4564555559
 31
0.0
  0
LINE
  5
A4
330
1F
100
AcDbEntity
  8
0
  6
Continuous
 62
     7
370
    25
100
AcDbLine
 10
143.8958311684
 20
162.4564555559
 30
0.0
 11
159.8958311684
 21
162.4564555559
 31
0.0
  0
LINE
  5
A5
330
1F
100
AcDbEntity
  8
0
  6
Continuous
 62
     7
370
    25
100
AcDbLine
 10
127.8958311684
 20
162.4564555559
 30
0.0
 11
143.8958311684
 21
162.4564555559
 31
0.0
  0
LINE
  5
A6
330
1F
100
AcDbEntity
  8
0
  6
Continuous
 62
     7
370
    25
100
AcDbLine
 10
100.8958311684
 20
129.4564555559
 30
0.0
 11
86.8958311684
 21
129.4564555559
 31
0.0
  0
LINE
  5
A7
330
1F
100
AcDbEntity
  8
0
  6
Continuous
 62
     7
370
    25
100
AcDbLine
 10
186.8958311684
 20
129.4564555559
 30
0.0
 11
200.8958311684
 21
129.4564555559
 31
0.0
  0
LINE
  5
A8
330
1F
100
AcDbEntity
  8
0
  6
Continuous
 62
     7
370
    25
100
AcDbLine
 10
321.9059468879
 20
113.5366130765
 30
0.0
 11
321.9059468879
 21
129.4564555559
 31
0.0
  0
LINE
  5
A9
330
1F
100
AcDbEntity
  8
0
  6
Continuous
 62
     7
370
    25
100
AcDbLine
 10
307.9059468879
 20
129.4564555559
 30
0.0
 11
307.9059468879
 21
113.5332651767
 31
0.0
  0
LINE
  5
AA
330
1F
100
AcDbEntity
  8
0
  6
Continuous
 62
     7
370
    25
100
AcDbLine
 10
298.9059468879
 20
162.4564555559
 30
0.0
 11
298.9059468879
 21
109.2080642814
 31
0.0
  0
LINE
  5
AB
330
1F
100
AcDbEntity
  8
0
  6
Continuous
 62
     7
370
    25
100
AcDbLine
 10
330.9059468879
 20
109.2050187268
 30
0.0
 11
330.9059468879
 21
162.4564555559
 31
0.0
  0
LINE
  5
AC
330
1F
100
AcDbEntity
  8
0
  6
Continuous
 62
     7
370
    25
100
AcDbLine
 10
340.3617910107
 20
96.4564555559
 30
0.0
 11
355.3617910107
 21
96.4564555559
 31
0.0
  0
LINE
  5
AD
330
1F
100
AcDbEntity
  8
0
  6
Continuous
 62
     7
370
    25
100
AcDbLine
 10
355.3617910107
 20
96.4564555559
 30
0.0
 11
355.3617910107
 21
89.4564555559
 31
0.0
  0
LINE
  5
AE
330
1F
100
AcDbEntity
  8
0
  6
Continuous
 62
     7
370
    25
100
AcDbLine
 10
355.3617910107
 20
89.4564555559
 30
0.0
 11
334.8056956301
 21
89.4564555559
 31
0.0
  0
ARC
  5
AF
330
1F
100
AcDbEntity
  8
0
  6
Continuous
 62
     7
370
    25
100
AcDbCircle
 10
314.9059468879
 20
87.4564555559
 30
0.0
 40
20.00000000000003
100
AcDbArc
 50
5.7391704773
 51
354.2608295227
  0
LINE
  5
B0
330
1F
100
AcDbEntity
  8
0
  6
Continuous
 62
     7
370
    25
100
AcDbLine
 10
334.8056956301
 20
85.4564555559
 30
0.0
 11
355.3617910107
 21
85.4564555559
 31
0.0
  0
LINE
  5
B1
330
1F
100
AcDbEntity
  8
0
  6
Continuous
 62
     7
370
    25
100
AcDbLine
 10
355.3617910107
 20
85.4564555559
 30
0.0
 11
355.3617910107
 21
78.4564555559
 31
0.0
  0
LINE
  5
B2
330
1F
100
AcDbEntity
  8
0
  6
Continuous
 62
     7
370
    25
100
AcDbLine
 10
355.3617910107
 20
78.4564555559
 30
0.0
 11
340.3617910107
 21
78.4564555559
 31
0.0
  0
ARC
  5
B3
330
1F
100
AcDbEntity
  8
0
  6
Continuous
 62
     7
370
    25
100
AcDbCircle
 10
314.9059468879
 20
87.4564555559
 30
0.0
 40
27.00000000000003
100
AcDbArc
 50
19.4712206345
 51
340.5287793655
  0
LINE
  5
B4
330
1F
100
AcDbEntity
  8
0
  6
Continuous
 62
     7
370
    25
100
AcDbLine
 10
321.9059468879
 20
129.4564555559
 30
0.0
 11
307.9059468879
 21
129.4564555559
 31
0.0
  0
LINE
  5
B5
330
1F
100
AcDbEntity
  8
0
  6
Continuous
 62
     7
370
    25
100
AcDbLine
 10
298.9059468879
 20
162.4564555559
 30
0.0
 11
330.9059468879
 21
162.4564555559
 31
0.0
  0
LINE
  5
B6
330
1F
100
AcDbEntity
  8
0
  6
Continuous
 62
     7
370
    25
100
AcDbLine
 10
83.8958311684
 20
213.6318774473
 30
0.0
 11
203.8958311684
 21
213.6318774473
 31
0.0
  0
LINE
  5
B7
330
1F
100
AcDbEntity
  8
0
  6
Continuous
 62
     7
370
    25
100
AcDbLine
 10
203.8958311684
 20
266.08772157
 30
0.0
 11
83.8958311684
 21
266.08772157
 31
0.0
  0
LINE
  5
B8
330
1F
100
AcDbEntity
  8
0
  6
Continuous
 62
     7
370
    25
100
AcDbLine
 10
203.8958311684
 20
266.08772157
 30
0.0
 11
203.8958311684
 21
213.6318774473
 31
0.0
  0
LINE
  5
B9
330
1F
100
AcDbEntity
  8
0
  6
Continuous
 62
     7
370
    25
100
AcDbLine
 10
83.8958311684
 20
266.08772157
 30
0.0
 11
83.8958311684
 21
213.6318774473
 31
0.0
  0
LINE
  5
BA
330
1F
100
AcDbEntity
  8
0
  6
Continuous
 62
     7
370
    25
100
AcDbLine
 10
113.8958311684
 20
265.7117498552
 30
0.0
 11
173.8958311684
 21
265.7117498552
 31
0.0
  0
LINE
  5
BB
330
1F
100
AcDbEntity
  8
0
  6
Continuous
 62
     7
370
    25
100
AcDbLine
 10
113.8958311684
 20
215.5520050393
 30
0.0
 11
113.8958311684
 21
265.7117498552
 31
0.0
  0
LINE
  5
BC
330
1F
100
AcDbEntity
  8
0
  6
Continuous
 62
     7
370
    25
100
AcDbLine
 10
173.8958311684
 20
215.5520050393
 30
0.0
 11
113.8958311684
 21
215.5520050393
 31
0.0
  0
LINE
  5
BD
330
1F
100
AcDbEntity
  8
0
  6
Continuous
 62
     7
370
    25
100
AcDbLine
 10
173.8958311684
 20
265.7117498552
 30
0.0
 11
173.8958311684
 21
215.5520050393
 31
0.0
  0
SPLINE
  5
BE
330
1F
100
AcDbEntity
  8
0
  6
Continuous
 62
     7
370
    25
100
AcDbSpline
210
0.0
220
0.0
230
1.0
 70
    11
 71
     3
 72
   108
 73
   104
 74
     0
 42
0.00000001
 43
0.00000001
 40
0.0
 40
0.0
 40
0.0
 40
0.0
 40
0.0312500000000001
 40
0.0312500000000001
 40
0.0468750000000001
 40
0.0468750000000001
 40
0.0625000000000002
 40
0.0625000000000002
 40
0.0781250000000002
 40
0.0781250000000002
 40
0.0937500000000002
 40
0.0937500000000002
 40
0.1250000000000002
 40
0.1250000000000002
 40
0.1406250000000002
 40
0.1406250000000002
 40
0.1562500000000002
 40
0.1562500000000002
 40
0.1875000000000002
 40
0.1875000000000002
 40
0.2031250000000002
 40
0.2031250000000002
 40
0.2187500000000003
 40
0.2187500000000003
 40
0.2500000000000003
 40
0.2500000000000003
 40
0.2656250000000004
 40
0.2656250000000004
 40
0.2812500000000004
 40
0.2812500000000004
 40
0.2968750000000005
 40
0.2968750000000005
 40
0.3125000000000005
 40
0.3125000000000005
 40
0.3437500000000006
 40
0.3437500000000006
 40
0.3750000000000007
 40
0.3750000000000007
 40
0.3906250000000008
 40
0.3906250000000008
 40
0.4062500000000008
 40
0.4062500000000008
 40
0.4375000000000009
 40
0.4375000000000009
 40
0.4531250000000009
 40
0.4531250000000009
 40
0.468750000000001
 40
0.468750000000001
 40
0.4843750000000011
 40
0.4843750000000011
 40
0.5000000000000011
 40
0.5000000000000011
 40
0.5312500000000012
 40
0.5312500000000012
 40
0.5468750000000012
 40
0.5468750000000012
 40
0.5625000000000013
 40
0.5625000000000013
 40
0.5781250000000013
 40
0.5781250000000013
 40
0.5937500000000014
 40
0.5937500000000014
 40
0.6250000000000013
 40
0.6250000000000013
 40
0.6562500000000013
 40
0.6562500000000013
 40
0.6718750000000013
 40
0.6718750000000013
 40
0.6875000000000012
 40
0.6875000000000012
 40
0.7187500000000011
 40
0.7187500000000011
 40
0.7343750000000011
 40
0.7343750000000011
 40
0.750000000000001
 40
0.750000000000001
 40
0.7656250000000009
 40
0.7656250000000009
 40
0.7812500000000009
 40
0.7812500000000009
 40
0.8125000000000008
 40
0.8125000000000008
 40
0.8281250000000007
 40
0.8281250000000007
 40
0.8437500000000007
 40
0.8437500000000007
 40
0.8593750000000006
 40
0.8593750000000006
 40
0.8750000000000004
 40
0.8750000000000004
 40
0.9062500000000003
 40
0.9062500000000003
 40
0.9218750000000003
 40
0.9218750000000003
 40
0.9375000000000002
 40
0.9375000000000002
 40
0.9531250000000002
 40
0.9531250000000002
 40
0.9687500000000001
 40
0.9687500000000001
 40
0.9843750000000001
 40
0.9843750000000001
 40
1.0
 40
1.0
 40
1.0
 40
1.0
 10
143.8958311684049
 20
227.6318774472615
 30
0.0
 10
144.7833587434109
 20
227.6318774472615
 30
0.0
 10
145.6481580754323
 20
227.7216972190542
 30
0.0
 10
146.9153980456258
 20
227.9800765219994
 30
0.0
 10
147.3338850133907
 20
228.0873464870456
 30
0.0
 10
148.1565857879943
 20
228.342392457056
 30
0.0
 10
148.5553958791027
 20
228.4883412824745
 30
0.0
 10
149.3308460166799
 20
228.8150408368272
 30
0.0
 10
149.7074775801629
 20
228.9958022115559
 30
0.0
 10
150.4404162330769
 20
229.3916867354642
 30
0.0
 10
150.7979641145506
 20
229.6076703112431
 30
0.0
 10
151.832636293646
 20
230.3024315211536
 30
0.0
 10
152.466466872311
 20
230.8226861241151
 30
0.0
 10
153.3421406471608
 20
231.6911702645295
 30
0.0
 10
153.6213695742692
 20
231.9954775864192
 30
0.0
 10
154.1542914119063
 20
232.6357850720572
 30
0.0
 10
154.4056729719031
 20
232.9692410761461
 30
0.0
 10
155.1077290894431
 20
233.9998017110975
 30
0.0
 10
155.5104257142134
 20
234.7308781209368
 30
0.0
 10
156.0119920094344
 20
235.9012541952463
 30
0.0
 10
156.1624072311759
 20
236.3052109095113
 30
0.0
 10
156.4240175015996
 20
237.134238410227
 30
0.0
 10
156.5333948721324
 20
237.5530991742985
 30
0.0
 10
156.7983262178583
 20
238.8226816098275
 30
0.0
 10
156.8913660538602
 20
239.6862819754204
 30
0.0
 10
156.8978309564018
 20
241.009396919332
 30
0.0
 10
156.8772124137209
 20
241.4538250518284
 30
0.0
 10
156.7924459866913
 20
242.3257437730531
 30
0.0
 10
156.7283844457508
 20
242.756521129005
 30
0.0
 10
156.5580148344412
 20
243.608056070573
 30
0.0
 10
156.4517053560648
 20
244.0288129748978
 30
0.0
 10
156.1965985155788
 20
244.8603843073675
 30
0.0
 10
156.048796067639
 20
245.2673666534864
 30
0.0
 10
155.5532413474141
 20
246.4485820134662
 30
0.0
 10
155.1519220672116
 20
247.1901609446606
 30
0.0
 10
154.2106455398286
 20
248.5889666912958
 30
0.0
 10
153.6841119023787
 20
249.2264900155179
 30
0.0
 10
152.812277738744
 20
250.1011135193883
 30
0.0
 10
152.5078539444208
 20
250.3789089368926
 30
0.0
 10
151.869910342207
 20
250.9073638340177
 30
0.0
 10
151.5373470751091
 20
251.156971644697
 30
0.0
 10
150.5127226315658
 20
251.8523159517923
 30
0.0
 10
149.7887603934077
 20
252.2499230869881
 30
0.0
 10
148.6306337937838
 20
252.7462508909491
 30
0.0
 10
148.2315804573445
 20
252.8951278079929
 30
0.0
 10
147.4092010930472
 20
253.1555455632384
 30
0.0
 10
146.9922612799893
 20
253.2651257401042
 30
0.0
 10
146.1462349011573
 20
253.4429088227658
 30
0.0
 10
145.7171481831353
 20
253.5111145149821
 30
0.0
 10
144.8459139489785
 20
253.6045134872016
 30
0.0
 10
144.4003351359311
 20
253.6295702749907
 30
0.0
 10
143.0771396928908
 20
253.6360274255158
 30
0.0
 10
142.2089699872771
 20
253.5514356429464
 30
0.0
 10
140.9261363866981
 20
253.2956460039561
 30
0.0
 10
140.5027280029318
 20
253.1885809992463
 30
0.0
 10
139.6824628062732
 20
252.9376273321308
 30
0.0
 10
139.2828153472123
 20
252.7932410603393
 30
0.0
 10
138.5025217852221
 20
252.4678773540433
 30
0.0
 10
138.1208266540273
 20
252.2863202219809
 30
0.0
 10
137.3799532793879
 20
251.8888774412968
 30
0.0
 10
137.0233291496981
 20
251.6745161770555
 30
0.0
 10
135.9910029260118
 20
250.9855389693396
 30
0.0
 10
135.3517835881158
 20
250.4650503712692
 30
0.0
 10
134.1681269025364
 20
249.2958146886942
 30
0.0
 10
133.6390346605851
 20
248.6623064609545
 30
0.0
 10
132.9351969316707
 20
247.6345136162501
 30
0.0
 10
132.7157019976506
 20
247.2788984993034
 30
0.0
 10
132.30804836954
 20
246.5396237982291
 30
0.0
 10
132.1188908416387
 20
246.1534615690787
 30
0.0
 10
131.611061271595
 20
244.9702282030779
 30
0.0
 10
131.3505634486342
 20
244.1500773423421
 30
0.0
 10
131.0823225880197
 20
242.868921484828
 30
0.0
 10
131.0132786443318
 20
242.4301761319034
 30
0.0
 10
130.9210982232795
 20
241.5540177280027
 30
0.0
 10
130.8974931925275
 20
241.1162382926096
 30
0.0
 10
130.8943381717739
 20
240.241268407175
 30
0.0
 10
130.9147893063131
 20
239.8040779699249
 30
0.0
 10
131.0002000355981
 20
238.930290691717
 30
0.0
 10
131.065865224271
 20
238.4908457031293
 30
0.0
 10
131.3258289334347
 20
237.2021229311323
 30
0.0
 10
131.5813800150422
 20
236.3784781302203
 30
0.0
 10
132.0811245144185
 20
235.191566342192
 30
0.0
 10
132.2679164434964
 20
234.803395197754
 30
0.0
 10
132.6722188678742
 20
234.0584359506068
 30
0.0
 10
132.8905011166697
 20
233.6995406676767
 30
0.0
 10
133.3583779241402
 20
233.0071373272216
 30
0.0
 10
133.6079738677015
 20
232.6736338515895
 30
0.0
 10
134.1387696325128
 20
232.0310984620471
 30
0.0
 10
134.4205936154489
 20
231.7217141860667
 30
0.0
 10
135.2991064358934
 20
230.8451073989873
 30
0.0
 10
135.9327609232548
 20
230.3229154185605
 30
0.0
 10
136.9616335024184
 20
229.6278691235358
 30
0.0
 10
137.3190131712323
 20
229.4103747166341
 30
0.0
 10
138.0576036218847
 20
229.0089794602506
 30
0.0
 10
138.4358694848179
 20
228.8265287540864
 30
0.0
 10
139.2115713646039
 20
228.497828269671
 30
0.0
 10
139.6090037854338
 20
228.3515739770302
 30
0.0
 10
140.4250275913527
 20
228.0964769805079
 30
0.0
 10
140.8449063007495
 20
227.9873605462721
 30
0.0
 10
141.7031437234932
 20
227.8106422502763
 30
0.0
 10
142.1360804055845
 20
227.7440474269633
 30
0.0
 10
143.0098953591792
 20
227.6546665326898
 30
0.0
 10
143.4520673809019
 20
227.6318774472615
 30
0.0
 10
143.8958311684049
 20
227.6318774472615
 30
0.0
  0
LINE
  5
BF
330
1F
100
AcDbEntity
  8
0
  6
Continuous
 62
     7
370
    25
100
AcDbLine
 10
173.8958311684
 20
257.952385523
 30
0.0
 11
113.8958311684
 21
257.952385523
 31
0.0
  0
LINE
  5
C0
330
1F
100
AcDbEntity
  8
0
  6
Continuous
 62
     7
370
    25
100
AcDbLine
 10
113.8958311684
 20
223.3113693716
 30
0.0
 11
173.8958311684
 21
223.3113693716
 31
0.0
  0
LINE
  5
C1
330
1F
100
AcDbEntity
  8
0
  6
Continuous
 62
     7
370
    25
100
AcDbLine
 10
203.8958311684
 20
281.08772157
 30
0.0
 11
83.8958311684
 21
281.08772157
 31
0.0
  0
LINE
  5
C2
330
1F
100
AcDbEntity
  8
0
  6
Continuous
 62
     7
370
    25
100
AcDbLine
 10
83.8958311684
 20
281.08772157
 30
0.0
 11
83.8958311684
 21
266.08772157
 31
0.0
  0
LINE
  5
C3
330
1F
100
AcDbEntity
  8
0
  6
Continuous
 62
     7
370
    25
100
AcDbLine
 10
203.8958311684
 20
281.08772157
 30
0.0
 11
203.8958311684
 21
266.08772157
 31
0.0
  0
INSERT
  5
CF
330
1F
100
AcDbEntity
  8
FORMAT
100
AcDbBlockReference
  2
SW_CENTERMARKSYMBOL_0
 10
143.8958311684
 20
240.6318774473
 30
0.0
  0
LINE
  5
D0
330
1F
100
AcDbEntity
  8
0
  6
Continuous
 62
     7
370
    25
100
AcDbLine
 10
-2.1594475139
 20
113.5332651767
 30
0.0
 11
-2.1594475139
 21
129.4564555559
 31
0.0
  0
LINE
  5
D1
330
1F
100
AcDbEntity
  8
0
  6
Continuous
 62
     7
370
    25
100
AcDbLine
 10
-16.1594475139
 20
129.4564555559
 30
0.0
 11
-16.1594475139
 21
113.5366130765
 31
0.0
  0
LINE
  5
D2
330
1F
100
AcDbEntity
  8
0
  6
Continuous
 62
     7
370
    25
100
AcDbLine
 10
-25.1594475139
 20
162.4564555559
 30
0.0
 11
-25.1594475139
 21
109.2050187268
 31
0.0
  0
LINE
  5
D3
330
1F
100
AcDbEntity
  8
0
  6
Continuous
 62
     7
370
    25
100
AcDbLine
 10
6.8405524861
 20
109.2080642814
 30
0.0
 11
6.8405524861
 21
162.4564555559
 31
0.0
  0
LINE
  5
D4
330
1F
100
AcDbEntity
  8
0
  6
Continuous
 62
     7
370
    25
100
AcDbLine
 10
-49.6152916366
 20
78.4564555559
 30
0.0
 11
-34.6152916366
 21
78.4564555559
 31
0.0
  0
LINE
  5
D5
330
1F
100
AcDbEntity
  8
0
  6
Continuous
 62
     7
370
    25
100
AcDbLine
 10
-49.6152916366
 20
85.4564555559
 30
0.0
 11
-49.6152916366
 21
78.4564555559
 31
0.0
  0
LINE
  5
D6
330
1F
100
AcDbEntity
  8
0
  6
Continuous
 62
     7
370
    25
100
AcDbLine
 10
-29.059196256
 20
85.4564555559
 30
0.0
 11
-49.6152916366
 21
85.4564555559
 31
0.0
  0
ARC
  5
D7
330
1F
100
AcDbEntity
  8
0
  6
Continuous
 62
     7
370
    25
100
AcDbCircle
 10
-9.1594475139
 20
87.4564555559
 30
0.0
 40
20.00000000000001
100
AcDbArc
 50
185.7391704773
 51
174.2608295227
  0
LINE
  5
D8
330
1F
100
AcDbEntity
  8
0
  6
Continuous
 62
     7
370
    25
100
AcDbLine
 10
-49.6152916366
 20
89.4564555559
 30
0.0
 11
-29.059196256
 21
89.4564555559
 31
0.0
  0
LINE
  5
D9
330
1F
100
AcDbEntity
  8
0
  6
Continuous
 62
     7
370
    25
100
AcDbLine
 10
-49.6152916366
 20
96.4564555559
 30
0.0
 11
-49.6152916366
 21
89.4564555559
 31
0.0
  0
LINE
  5
DA
330
1F
100
AcDbEntity
  8
0
  6
Continuous
 62
     7
370
    25
100
AcDbLine
 10
-34.6152916366
 20
96.4564555559
 30
0.0
 11
-49.6152916366
 21
96.4564555559
 31
0.0
  0
ARC
  5
DB
330
1F
100
AcDbEntity
  8
0
  6
Continuous
 62
     7
370
    25
100
AcDbCircle
 10
-9.1594475139
 20
87.4564555559
 30
0.0
 40
27.00000000000001
100
AcDbArc
 50
199.4712206345
 51
160.5287793655
  0
LINE
  5
DC
330
1F
100
AcDbEntity
  8
0
  6
Continuous
 62
     7
370
    25
100
AcDbLine
 10
-16.1594475139
 20
129.4564555559
 30
0.0
 11
-2.1594475139
 21
129.4564555559
 31
0.0
  0
LINE
  5
DD
330
1F
100
AcDbEntity
  8
0
  6
Continuous
 62
     7
370
    25
100
AcDbLine
 10
-25.1594475139
 20
162.4564555559
 30
0.0
 11
6.8405524861
 21
162.4564555559
 31
0.0
  0
LINE
  5
DE
330
1F
100
AcDbEntity
  8
0
  6
Continuous
 62
     7
370
    25
100
AcDbLine
 10
203.8958311684
 20
-25.5772143086
 30
0.0
 11
83.8958311684
 21
-25.5772143086
 31
0.0
  0
CIRCLE
  5
DF
330
1F
100
AcDbEntity
  8
0
  6
Continuous
 62
     7
370
    25
100
AcDbCircle
 10
143.8958311684
 20
-52.5772143086
 30
0.0
 40
13.00000000000001
  0
CIRCLE
  5
E0
330
1F
100
AcDbEntity
  8
0
  6
Continuous
 62
     7
370
    25
100
AcDbCircle
 10
143.8958311684
 20
-52.5772143086
 30
0.0
 40
16.00000000000001
  0
CIRCLE
  5
E1
330
1F
100
AcDbEntity
  8
0
  6
Continuous
 62
     7
370
    25
100
AcDbCircle
 10
93.8958311684
 20
-52.5772143086
 30
0.0
 40
4.600000000000009
  0
CIRCLE
  5
E2
330
1F
100
AcDbEntity
  8
0
  6
Continuous
 62
     7
370
    25
100
AcDbCircle
 10
93.8958311684
 20
-52.5772143086
 30
0.0
 40
7.000000000000007
  0
CIRCLE
  5
E3
330
1F
100
AcDbEntity
  8
0
  6
Continuous
 62
     7
370
    25
100
AcDbCircle
 10
193.8958311684
 20
-52.5772143086
 30
0.0
 40
4.600000000000009
  0
CIRCLE
  5
E4
330
1F
100
AcDbEntity
  8
0
  6
Continuous
 62
     7
370
    25
100
AcDbCircle
 10
193.8958311684
 20
-52.5772143086
 30
0.0
 40
7.000000000000007
  0
CIRCLE
  5
E5
330
1F
100
AcDbEntity
  8
0
  6
Continuous
 62
     7
370
    25
100
AcDbCircle
 10
93.8958311684
 20
-52.5772143086
 30
0.0
 40
1.5
  0
CIRCLE
  5
E6
330
1F
100
AcDbEntity
  8
0
  6
Continuous
 62
     7
370
    25
100
AcDbCircle
 10
93.8958311684
 20
-52.5772143086
 30
0.0
 40
2.000000000000014
  0
CIRCLE
  5
E7
330
1F
100
AcDbEntity
  8
0
  6
Continuous
 62
     7
370
    25
100
AcDbCircle
 10
193.8958311684
 20
-52.5772143086
 30
0.0
 40
1.5
  0
CIRCLE
  5
E8
330
1F
100
AcDbEntity
  8
0
  6
Continuous
 62
     7
370
    25
100
AcDbCircle
 10
193.8958311684
 20
-52.5772143086
 30
0.0
 40
2.000000000000014
  0
LINE
  5
E9
330
1F
100
AcDbEntity
  8
0
  6
Continuous
 62
     7
370
    25
100
AcDbLine
 10
203.8958311684
 20
-25.5772143086
 30
0.0
 11
203.8958311684
 21
-78.0330584313
 31
0.0
  0
LINE
  5
EA
330
1F
100
AcDbEntity
  8
0
  6
Continuous
 62
     7
370
    25
100
AcDbLine
 10
203.8958311684
 20
-78.0330584313
 30
0.0
 11
83.8958311684
 21
-78.0330584313
 31
0.0
  0
LINE
  5
EB
330
1F
100
AcDbEntity
  8
0
  6
Continuous
 62
     7
370
    25
100
AcDbLine
 10
83.8958311684
 20
-25.5772143086
 30
0.0
 11
83.8958311684
 21
-78.0330584313
 31
0.0
  0
LINE
  5
EC
330
1F
100
AcDbEntity
  8
0
  6
Continuous
 62
     7
370
    25
100
AcDbLine
 10
203.8958311684
 20
-93.0330584313
 30
0.0
 11
83.8958311684
 21
-93.0330584313
 31
0.0
  0
LINE
  5
ED
330
1F
100
AcDbEntity
  8
0
  6
Continuous
 62
     7
370
    25
100
AcDbLine
 10
83.8958311684
 20
-78.0330584313
 30
0.0
 11
83.8958311684
 21
-93.0330584313
 31
0.0
  0
LINE
  5
EE
330
1F
100
AcDbEntity
  8
0
  6
Continuous
 62
     7
370
    25
100
AcDbLine
 10
203.8958311684
 20
-78.0330584313
 30
0.0
 11
203.8958311684
 21
-93.0330584313
 31
0.0
  0
INSERT
  5
FA
330
1F
100
AcDbEntity
  8
FORMAT
100
AcDbBlockReference
  2
SW_CENTERMARKSYMBOL_1
 10
143.8958311684
 20
-52.5772143086
 30
0.0
  0
INSERT
  5
106
330
1F
100
AcDbEntity
  8
FORMAT
100
AcDbBlockReference
  2
SW_CENTERMARKSYMBOL_2
 10
93.8958311684
 20
-52.5772143086
 30
0.0
  0
INSERT
  5
112
330
1F
100
AcDbEntity
  8
FORMAT
100
AcDbBlockReference
  2
SW_CENTERMARKSYMBOL_3
 10
193.8958311684
 20
-52.5772143086
 30
0.0
  0
LINE
  5
113
330
1F
100
AcDbEntity
  8
0
  6
Continuous
 62
     7
370
    25
100
AcDbLine
 10
365.7600160887
 20
-65.2227349876
 30
0.0
 11
386.9732195243
 21
-52.9766133103
 31
0.0
  0
LINE
  5
114
330
1F
100
AcDbEntity
  8
0
  6
Continuous
 62
     7
370
    25
100
AcDbLine
 10
302.120405782
 20
-101.9611000196
 30
0.0
 11
323.3336092175
 21
-89.7149783423
 31
0.0
  0
LINE
  5
115
330
1F
100
AcDbEntity
  8
0
  6
Continuous
 62
     7
370
    25
100
AcDbLine
 10
359.9754137432
 20
-6.2099747417
 30
0.0
 11
352.837117674
 21
-10.3308253477
 31
0.0
  0
LINE
  5
116
330
1F
100
AcDbEntity
  8
0
  6
Continuous
 62
     7
370
    25
100
AcDbLine
 10
373.4032488219
 20
-7.5058182736
 30
0.0
 11
373.4032488219
 21
0.6193795141
 31
0.0
  0
LINE
  5
117
330
1F
100
AcDbEntity
  8
0
  6
Continuous
 62
     7
370
    25
100
AcDbLine
 10
359.4032488219
 20
0.6193795141
 30
0.0
 11
359.4032488219
 21
-6.54027852
 31
0.0
  0
LINE
  5
118
330
1F
100
AcDbEntity
  8
0
  6
Continuous
 62
     7
370
    25
100
AcDbLine
 10
315.0479097626
 20
7.1550235108
 30
0.0
 11
315.0479097626
 21
-22.9447941546
 31
0.0
  0
LINE
  5
119
330
1F
100
AcDbEntity
  8
0
  6
Continuous
 62
     7
370
    25
100
AcDbLine
 10
347.0479097626
 20
-6.9887867577
 30
0.0
 11
347.0479097626
 21
7.1550235108
 31
0.0
  0
LINE
  5
11A
330
1F
100
AcDbEntity
  8
0
  6
Continuous
 62
     7
370
    25
100
AcDbLine
 10
344.867714916
 20
-20.4279216767
 30
0.0
 11
355.4743166338
 21
-26.5509825154
 31
0.0
  0
LINE
  5
11B
330
1F
100
AcDbEntity
  8
0
  6
Continuous
 62
     7
370
    25
100
AcDbLine
 10
344.867714916
 20
-14.7121359935
 30
0.0
 11
344.867714916
 21
-20.4279216767
 31
0.0
  0
LINE
  5
11C
330
1F
100
AcDbEntity
  8
0
  6
Continuous
 62
     7
370
    25
100
AcDbLine
 10
359.4030693543
 20
-23.1032175016
 30
0.0
 11
344.867714916
 21
-14.7121359935
 31
0.0
  0
LWPOLYLINE
  5
11D
330
1F
100
AcDbEntity
  8
0
  6
Continuous
 62
     7
370
    25
100
AcDbPolyline
 90
       80
 70
   128
 43
0.0
 10
359.4030693543
 20
-19.837054254
 10
359.5535451132
 20
-18.6788576767
 10
359.7865123008
 20
-17.5853376474
 10
360.100590405
 20
-16.5629741252
 10
360.4939182679
 20
-15.6178254115
 10
360.9641651153
 20
-14.7554922496
 10
361.5085443676
 20
-13.9810846359
 10
362.1238301534
 20
-13.2991915396
 10
362.8063764244
 20
-12.7138537092
 10
363.5521385617
 20
-12.2285397278
 10
364.3566973428
 20
-11.8461254592
 10
365.2152851295
 20
-11.5688770064
 10
366.1228141195
 20
-11.3984372825
 10
367.0739064958
 20
-11.335816276
 10
368.0629262941
 20
-11.3813850651
 10
369.0840128008
 20
-11.5348736192
 10
370.1311152819
 20
-11.7953723989
 10
371.1980288386
 20
-12.1613377457
 10
372.2784311758
 20
-12.6306010296
 10
373.3659200672
 20
-13.2003814996
 10
374.4540512927
 20
-13.8673027619
 10
375.5363768262
 20
-14.627412788
 10
376.6064830448
 20
-15.4762073332
 10
377.6580287344
 20
-16.4086566276
 10
378.6847826668
 20
-17.4192351819
 10
379.680660524
 20
-18.5019545301
 10
380.639760953
 20
-19.6503987155
 10
381.5564005358
 20
-20.8577623106
 10
382.4251474677
 20
-22.1168907444
 10
383.2408537458
 20
-23.4203226989
 10
383.9986856741
 20
-24.7603343231
 10
384.6941525073
 20
-26.128985003
 10
385.323133062
 20
-27.5181644159
 10
385.8819001378
 20
-28.9196405902
 10
386.3671426042
 20
-30.3251086866
 10
386.7759850208
 20
-31.7262402103
 10
387.1060046776
 20
-33.1147323642
 10
387.3552459507
 20
-34.4823572495
 10
387.5222318911
 20
-35.8210106219
 10
387.605972977
 20
-37.1227599162
 10
387.605972977
 20
-38.3798912525
 10
387.5222318911
 20
-39.584955147
 10
387.3552459507
 20
-40.7308106564
 10
387.1060046776
 20
-41.8106676931
 10
386.7759850208
 20
-42.8181272618
 10
386.3671426042
 20
-43.7472193789
 10
385.8819001378
 20
-44.5924384489
 10
385.323133062
 20
-45.3487758896
 10
384.6941525073
 20
-46.0117498117
 10
383.9986856741
 20
-46.5774315777
 10
383.2408537458
 20
-47.0424690819
 10
382.4251474677
 20
-47.4041066144
 10
381.5564005358
 20
-47.6602011907
 10
380.639760953
 20
-47.8092352508
 10
379.680660524
 20
-47.8503256515
 10
378.6847826668
 20
-47.7832289003
 10
377.6580287344
 20
-47.6083425977
 10
376.6064830448
 20
-47.3267030814
 10
375.5363768262
 20
-46.9399792853
 10
374.4540512927
 20
-46.4504628494
 10
373.3659200672
 20
-45.8610545405
 10
372.2784311758
 20
-45.1752470625
 10
371.1980288386
 20
-44.3971043596
 10
370.1311152819
 20
-43.5312375342
 10
369.0840128008
 20
-42.5827775225
 10
368.0629262941
 20
-41.5573446901
 10
367.0739064958
 20
-40.461015526
 10
366.1228141195
 20
-39.3002866357
 10
365.2152851295
 20
-38.0820362433
 10
364.3566973428
 20
-36.8134834324
 10
363.5521385617
 20
-35.5021453679
 10
362.8063764244
 20
-34.1557927506
 10
362.1238301534
 20
-32.7824037698
 10
361.5085443676
 20
-31.3901168264
 10
360.9641651153
 20
-29.9871823065
 10
360.4939182679
 20
-28.5819136913
 10
360.100590405
 20
-27.1826382934
 10
359.7865123008
 20
-25.7976479109
 10
359.5535451132
 20
-24.4351496921
 10
359.4030693543
 20
-23.1032175016
  0
LINE
  5
11E
330
1F
100
AcDbEntity
  8
0
  6
Continuous
 62
     7
370
    25
100
AcDbLine
 10
344.867714916
 20
-11.445972746
 30
0.0
 11
359.4030693543
 21
-19.837054254
 31
0.0
  0
LINE
  5
11F
330
1F
100
AcDbEntity
  8
0
  6
Continuous
 62
     7
370
    25
100
AcDbLine
 10
344.867714916
 20
-5.7301870628
 30
0.0
 11
344.867714916
 21
-11.445972746
 31
0.0
  0
LINE
  5
120
330
1F
100
AcDbEntity
  8
0
  6
Continuous
 62
     7
370
    25
100
AcDbLine
 10
355.4743166338
 20
-11.8532479015
 30
0.0
 11
344.867714916
 21
-5.7301870628
 31
0.0
  0
LWPOLYLINE
  5
121
330
1F
100
AcDbEntity
  8
0
  6
Continuous
 62
     7
370
    25
100
AcDbPolyline
 90
       86
 70
   128
 43
0.0
 10
355.4743166338
 20
-26.5509825154
 10
355.932647656
 20
-28.1688878967
 10
356.4671859306
 20
-29.7929814052
 10
357.075609233
 20
-31.4162074006
 10
357.7552743559
 20
-33.0315140116
 10
358.5032285921
 20
-34.6318837715
 10
359.3162225622
 20
-36.2103641045
 10
360.1907243312
 20
-37.7600975304
 10
361.1229347521
 20
-39.2743514557
 10
362.1088039713
 20
-40.7465474225
 10
363.1440490218
 20
-42.1702896877
 10
364.224172431
 20
-43.5393930081
 10
365.3444817582
 20
-44.8479095118
 10
366.5001099812
 20
-46.0901545374
 10
367.6860366396
 20
-47.2607313305
 10
368.8971096461
 20
-48.3545544889
 10
370.1280676686
 20
-49.3668720557
 10
371.3735629874
 20
-50.293286163
 10
372.6281847275
 20
-51.1297721383
 10
373.8864823658
 20
-51.8726959889
 10
375.1429894094
 20
-52.5188301892
 10
376.3922471447
 20
-53.0653677022
 10
377.6288283516
 20
-53.5099341746
 10
378.8473608811
 20
-53.8505982514
 10
380.0425509944
 20
-54.0858799667
 10
381.2092063603
 20
-54.2147571728
 10
382.3422586127
 20
-54.2366699814
 10
383.4367853696
 20
-54.1515231955
 10
384.488031617
 20
-53.9596867229
 10
385.4914303673
 20
-53.6619939696
 10
386.4426224993
 20
-53.2597382188
 10
387.3374756957
 20
-52.7546670127
 10
388.1721023959
 20
-52.1489745603
 10
388.9428766846
 20
-51.4452922052
 10
389.6464500438
 20
-50.6466769938
 10
390.2797659006
 20
-49.756598395
 10
390.8400729056
 20
-48.7789232268
 10
391.3249368856
 20
-47.7178988581
 10
391.7322514191
 20
-46.5781347563
 10
392.0602469867
 20
-45.3645824623
 10
392.307498659
 20
-44.0825140791
 10
392.4729322868
 20
-42.7374993679
 10
392.5558291674
 20
-41.3353815513
 10
392.5558291674
 20
-39.882251928
 10
392.4729322868
 20
-38.3844234103
 10
392.307498659
 20
-36.8484030982
 10
392.0602469867
 20
-35.2808640105
 10
391.7322514191
 20
-33.6886160949
 10
391.3249368856
 20
-32.0785766429
 10
390.8400729056
 20
-30.4577402387
 10
390.2797659006
 20
-28.8331483727
 10
389.6464500438
 20
-27.2118588498
 10
388.9428766846
 20
-25.6009151288
 10
388.1721023959
 20
-24.0073157224
 10
387.3374756957
 20
-22.4379837936
 10
386.4426224993
 20
-20.8997370786
 10
385.4914303673
 20
-19.3992582686
 10
384.488031617
 20
-17.9430659776
 10
383.4367853696
 20
-16.5374864229
 10
382.3422586127
 20
-15.1886259425
 10
381.2092063603
 20
-13.9023444661
 10
380.0425509944
 20
-12.6842300583
 10
378.8473608811
 20
-11.5395746415
 10
377.6288283516
 20
-10.4733510061
 10
376.3922471447
 20
-9.4901912072
 10
375.1429894094
 20
-8.5943664406
 10
373.8864823658
 20
-7.7897684879
 10
372.6281847275
 20
-7.0798928091
 10
371.3735629874
 20
-6.4678233566
 10
370.1280676686
 20
-5.9562191779
 10
368.8971096461
 20
-5.5473028637
 10
367.6860366396
 20
-5.242850892
 10
366.5001099812
 20
-5.0441859104
 10
365.3444817582
 20
-4.9521709903
 10
364.224172431
 20
-4.9672058773
 10
363.1440490218
 20
-5.0892252544
 10
362.1088039713
 20
-5.3176990262
 10
361.1229347521
 20
-5.6516346212
 10
360.1907243312
 20
-6.0895813043
 10
359.3162225622
 20
-6.6296364794
 10
358.5032285921
 20
-7.2694539545
 10
357.7552743559
 20
-8.0062541349
 10
357.075609233
 20
-8.8368360983
 10
356.4671859306
 20
-9.7575915013
 10
355.932647656
 20
-10.7645202546
 10
355.4743166338
 20
-11.8532479015
  0
LINE
  5
122
330
1F
100
AcDbEntity
  8
0
  6
Continuous
 62
     7
370
    25
100
AcDbLine
 10
355.4743166338
 20
-26.5509825154
 30
0.0
 11
270.6215028914
 21
-75.5354692248
 31
0.0
  0
LWPOLYLINE
  5
123
330
1F
100
AcDbEntity
  8
0
  6
Continuous
 62
     7
370
    25
100
AcDbPolyline
 90
       32
 70
   128
 43
0.0
 10
270.6215028914
 20
-75.5354692248
 10
271.0798339137
 20
-77.1533746061
 10
271.6143721882
 20
-78.7774681145
 10
272.2227954906
 20
-80.4006941099
 10
272.9024606135
 20
-82.0160007209
 10
273.6504148497
 20
-83.6163704808
 10
274.4634088198
 20
-85.1948508139
 10
275.3379105888
 20
-86.7445842398
 10
276.2701210098
 20
-88.2588381651
 10
277.2559902289
 20
-89.7310341319
 10
278.2912352794
 20
-91.154776397
 10
279.3713586886
 20
-92.5238797174
 10
280.4916680158
 20
-93.8323962211
 10
281.6472962388
 20
-95.0746412468
 10
282.8332228972
 20
-96.2452180399
 10
284.0442959037
 20
-97.3390411983
 10
285.2752539262
 20
-98.3513587651
 10
286.520749245
 20
-99.2777728724
 10
287.7753709851
 20
-100.1142588477
 10
289.0336686234
 20
-100.8571826983
 10
290.2901756671
 20
-101.5033168985
 10
291.5394334024
 20
-102.0498544116
 10
292.7760146092
 20
-102.494420884
 10
293.9945471387
 20
-102.8350849608
 10
295.189737252
 20
-103.070366676
 10
296.3563926179
 20
-103.1992438822
 10
297.4894448704
 20
-103.2211566908
 10
298.5839716272
 20
-103.1360099048
 10
299.6352178746
 20
-102.9441734322
 10
300.638616625
 20
-102.6464806789
 10
301.5898087569
 20
-102.2442249282
 10
302.120405782
 20
-101.9611000196
  0
LINE
  5
124
330
1F
100
AcDbEntity
  8
0
  6
Continuous
 62
     7
370
    25
100
AcDbLine
 10
292.100558476
 20
-64.2593615382
 30
0.0
 11
334.5269653472
 21
-39.7671181835
 31
0.0
  0
LWPOLYLINE
  5
125
330
1F
100
AcDbEntity
  8
0
  6
Continuous
 62
     7
370
    25
100
AcDbPolyline
 90
       37
 70
   128
 43
0.0
 10
327.5688541779
 20
-84.7347728155
 10
327.062342726
 20
-85.7789532344
 10
326.4803865246
 20
-86.7379683873
 10
325.8255341265
 20
-87.6076184725
 10
325.1006533178
 20
-88.3840950433
 10
324.3089185589
 20
-89.0639976868
 10
323.4537970829
 20
-89.6443489146
 10
322.5390337115
 20
-90.1226072027
 10
321.5686344551
 20
-90.4966781211
 10
320.5468489698
 20
-90.7649235063
 10
319.4781519466
 20
-90.9261686351
 10
318.3672235156
 20
-90.9797073687
 10
317.2189287504
 20
-90.9253052459
 10
316.0382963621
 20
-90.763200509
 10
314.830496678
 20
-90.4941030611
 10
313.6008189983
 20
-90.1191913569
 10
312.3546484337
 20
-89.640107242
 10
311.0974423214
 20
-89.0589487629
 10
309.834706327
 20
-88.3782609789
 10
308.5719703325
 20
-87.6010248165
 10
307.3147642203
 20
-86.7306440153
 10
306.0685936556
 20
-85.7709302218
 10
304.838915976
 20
-84.7260862975
 10
303.6311162918
 20
-83.6006879128
 10
302.4504839036
 20
-82.3996635092
 10
301.3021891383
 20
-81.1282727164
 10
300.1912607073
 20
-79.7920833183
 10
299.1225636841
 20
-78.3969468707
 10
298.1007781989
 20
-76.9489730754
 10
297.1303789425
 20
-75.4545030239
 10
296.215615571
 20
-73.9200814282
 10
295.360494095
 20
-72.3524279595
 10
294.5687593361
 20
-70.758407821
 10
293.8438785274
 20
-69.145001683
 10
293.1890261293
 20
-67.5192751125
 10
292.607069928
 20
-65.8883476316
 10
292.100558476
 20
-64.2593615382
  0
LINE
  5
126
330
1F
100
AcDbEntity
  8
0
  6
Continuous
 62
     7
370
    25
100
AcDbLine
 10
359.3292986189
 20
-66.3998585094
 30
0.0
 11
327.5688541779
 21
-84.7347728155
 31
0.0
  0
LWPOLYLINE
  5
127
330
1F
100
AcDbEntity
  8
0
  6
Continuous
 62
     7
370
    25
100
AcDbPolyline
 90
       31
 70
   128
 43
0.0
 10
334.5269653472
 20
-39.7671181835
 10
335.0334767991
 20
-41.3961042769
 10
335.6154330005
 20
-43.0270317578
 10
336.2702853986
 20
-44.6527583283
 10
336.9951662073
 20
-46.2661644663
 10
337.7869009662
 20
-47.8601846048
 10
338.6420224422
 20
-49.4278380735
 10
339.5567858137
 20
-50.9622596692
 10
340.5271850701
 20
-52.4567297207
 10
341.5489705553
 20
-53.9047035161
 10
342.6176675785
 20
-55.2998399636
 10
343.7285960095
 20
-56.6360293617
 10
344.8768907748
 20
-57.9074201545
 10
346.057523163
 20
-59.1084445581
 10
347.2653228472
 20
-60.2338429428
 10
348.4950005268
 20
-61.2786868672
 10
349.7411710914
 20
-62.2384006606
 10
350.9983772037
 20
-63.1087814618
 10
352.2611131982
 20
-63.8860176242
 10
353.5238491926
 20
-64.5667054083
 10
354.7810553049
 20
-65.1478638873
 10
356.0272258695
 20
-65.6269480022
 10
357.2569035492
 20
-66.0018597064
 10
358.4647032333
 20
-66.2709571543
 10
359.6453356216
 20
-66.4330618912
 10
360.7936303868
 20
-66.487464014
 10
361.9045588178
 20
-66.4339252804
 10
362.973255841
 20
-66.2726801517
 10
363.9950413263
 20
-66.0044347664
 10
364.9654405826
 20
-65.630363848
 10
365.7600160887
 20
-65.2227349876
  0
LINE
  5
128
330
1F
100
AcDbEntity
  8
0
  6
Continuous
 62
     7
370
    25
100
AcDbLine
 10
344.867714916
 20
-20.4279216767
 30
0.0
 11
260.0149011736
 21
-69.4124083861
 31
0.0
  0
LINE
  5
129
330
1F
100
AcDbEntity
  8
0
  6
Continuous
 62
     7
370
    25
100
AcDbLine
 10
260.0149011736
 20
-69.4124083861
 30
0.0
 11
270.6215028914
 21
-75.5354692248
 31
0.0
  0
LINE
  5
12A
330
1F
100
AcDbEntity
  8
0
  6
Continuous
 62
     7
370
    25
100
AcDbLine
 10
344.867714916
 20
-14.7121359935
 30
0.0
 11
260.0149011736
 21
-63.6966227029
 31
0.0
  0
LINE
  5
12B
330
1F
100
AcDbEntity
  8
0
  6
Continuous
 62
     7
370
    25
100
AcDbLine
 10
260.0149011736
 20
-63.6966227029
 30
0.0
 11
260.0149011736
 21
-69.4124083861
 31
0.0
  0
SPLINE
  5
12C
330
1F
100
AcDbEntity
  8
0
  6
Continuous
 62
     7
370
    25
100
AcDbSpline
210
0.0
220
0.0
230
1.0
 70
     8
 71
     3
 72
    11
 73
     7
 74
     0
 42
0.00000001
 43
0.00000001
 40
0.0
 40
0.0
 40
0.0
 40
0.0
 40
0.0302643977988079
 40
0.4047931750814781
 40
0.7262759294223871
 40
1.0
 40
1.0
 40
1.0
 40
1.0
 10
332.2582783401018
 20
-47.41161129872118
 30
0.0
 10
332.3167006350849
 20
-47.42845121763089
 30
0.0
 10
333.0981120624328
 20
-47.65368894708759
 30
0.0
 10
334.4759901037081
 20
-47.86907550536979
 30
0.0
 10
336.2835735775544
 20
-48.02326678536828
 30
0.0
 10
337.3221406847275
 20
-47.87829213397295
 30
0.0
 10
337.799757547038
 20
-47.81162110459432
 30
0.0
  0
LINE
  5
12D
330
1F
100
AcDbEntity
  8
0
  6
Continuous
 62
     7
370
    25
100
AcDbLine
 10
359.4030693543
 20
-19.837054254
 30
0.0
 11
356.5741824932
 21
-21.4701358778
 31
0.0
  0
LINE
  5
12E
330
1F
100
AcDbEntity
  8
0
  6
Continuous
 62
     7
370
    25
100
AcDbLine
 10
336.4231117571
 20
-45.0073041442
 30
0.0
 11
297.587257613
 21
-67.4267655299
 31
0.0
  0
LINE
  5
12F
330
1F
100
AcDbEntity
  8
0
  6
Continuous
 62
     7
370
    25
100
AcDbLine
 10
322.0821550409
 20
-81.5673688238
 30
0.0
 11
352.4871308625
 21
-64.0149498957
 31
0.0
  0
LWPOLYLINE
  5
130
330
1F
100
AcDbEntity
  8
0
  6
Continuous
 62
     7
370
    25
100
AcDbPolyline
 90
       28
 70
   128
 43
0.0
 10
297.587257613
 20
-67.4267655299
 10
298.1720405733
 20
-68.8357673746
 10
298.8269641778
 20
-70.2297092173
 10
299.5480896387
 20
-71.6002077276
 10
300.3310800228
 20
-72.9390205664
 10
301.1712263337
 20
-74.2380959555
 10
302.0634758326
 20
-75.4896211029
 10
303.0024624262
 20
-76.6860691889
 10
303.9825389385
 20
-77.8202446341
 10
304.997811074
 20
-78.8853263738
 10
306.0421728667
 20
-79.8749088812
 10
307.1093434019
 20
-80.7830406905
 10
308.1929045904
 20
-81.6042601904
 10
309.2863397678
 20
-82.3336284699
 10
310.3830728861
 20
-82.9667590226
 10
311.4765080635
 20
-83.4998441267
 10
312.560069252
 20
-83.9296777457
 10
313.6272397872
 20
-84.2536748097
 10
314.6716015799
 20
-84.4698867622
 10
315.6868737155
 20
-84.577013279
 10
316.6669502277
 20
-84.5744100887
 10
317.6059368213
 20
-84.4620928472
 10
318.4981863203
 20
-84.2407370436
 10
319.3383326312
 20
-83.9116739377
 10
320.1213230152
 20
-83.4768825538
 10
320.8424484761
 20
-82.9389777784
 10
321.4973720806
 20
-82.3011946341
 10
322.0821550409
 20
-81.5673688238
  0
LINE
  5
131
330
1F
100
AcDbEntity
  8
0
  6
Continuous
 62
     7
370
    25
100
AcDbLine
 10
344.867714916
 20
-11.445972746
 30
0.0
 11
260.0149011736
 21
-60.4304594554
 31
0.0
  0
LINE
  5
132
330
1F
100
AcDbEntity
  8
0
  6
Continuous
 62
     7
370
    25
100
AcDbLine
 10
260.0149011736
 20
-60.4304594554
 30
0.0
 11
262.8437880346
 21
-62.0635410791
 31
0.0
  0
LINE
  5
133
330
1F
100
AcDbEntity
  8
0
  6
Continuous
 62
     7
370
    25
100
AcDbLine
 10
344.867714916
 20
-5.7301870628
 30
0.0
 11
260.0149011736
 21
-54.7146737722
 31
0.0
  0
LINE
  5
134
330
1F
100
AcDbEntity
  8
0
  6
Continuous
 62
     7
370
    25
100
AcDbLine
 10
260.0149011736
 20
-54.7146737722
 30
0.0
 11
260.0149011736
 21
-60.4304594554
 31
0.0
  0
LINE
  5
135
330
1F
100
AcDbEntity
  8
0
  6
Continuous
 62
     7
370
    25
100
AcDbLine
 10
297.587257613
 20
-67.4267655299
 30
0.0
 11
292.100558476
 21
-64.2593615382
 31
0.0
  0
LWPOLYLINE
  5
136
330
1F
100
AcDbEntity
  8
0
  6
Continuous
 62
     7
370
    25
100
AcDbPolyline
 90
       25
 70
   128
 43
0.0
 10
359.4032488219
 20
0.6193795141
 10
359.4631347923
 20
1.1468376822
 10
359.6417680379
 20
1.6652708949
 10
359.9360920943
 20
2.165808616
 10
360.3410709954
 20
2.6398865064
 10
360.8497754398
 20
3.079392962
 10
361.4535013536
 20
3.4768079055
 10
362.1419188188
 20
3.825331457
 10
362.9032488219
 20
4.1190002818
 10
363.7244647953
 20
4.3527896251
 10
364.5915155062
 20
4.5226992862
 10
365.4895654763
 20
4.6258220639
 10
366.4032488219
 20
4.6603934987
 10
367.3169321674
 20
4.6258220639
 10
368.2149821376
 20
4.5226992862
 10
369.0820328484
 20
4.3527896251
 10
369.9032488219
 20
4.1190002818
 10
370.6645788249
 20
3.825331457
 10
371.3529962902
 20
3.4768079055
 10
371.9567222039
 20
3.079392962
 10
372.4654266484
 20
2.6398865064
 10
372.8704055495
 20
2.165808616
 10
373.1647296059
 20
1.6652708949
 10
373.3433628515
 20
1.1468376822
 10
373.4032488219
 20
0.6193795141
  0
LINE
  5
137
330
1F
100
AcDbEntity
  8
0
  6
Continuous
 62
     7
370
    25
100
AcDbLine
 10
327.5688541779
 20
-84.7347728155
 30
0.0
 11
322.0821550409
 21
-81.5673688238
 31
0.0
  0
LWPOLYLINE
  5
138
330
1F
100
AcDbEntity
  8
0
  6
Continuous
 62
     7
370
    25
100
AcDbPolyline
 90
       29
 70
   128
 43
0.0
 10
319.7342012636
 20
13.6862884054
 10
320.7486633074
 20
14.2235696774
 10
321.8393773685
 20
14.7085179067
 10
322.9982681817
 20
15.1375427063
 10
324.2167557249
 20
15.5074677265
 10
325.4858187426
 20
15.8155541721
 10
326.7960615361
 20
16.0595210787
 10
328.1377835264
 20
16.2375622007
 10
329.5010510731
 20
16.3483593839
 10
330.8757710203
 20
16.3910923248
 10
332.2517654226
 20
16.3654446436
 10
333.6188468988
 20
16.2716062268
 10
334.9668940559
 20
16.1102718212
 10
336.2859264244
 20
15.8826358903
 10
337.5661783502
 20
15.5903837708
 10
338.7981712959
 20
15.2356791952
 10
339.9727840168
 20
14.8211482721
 10
341.0813200912
 20
14.3498600434
 10
342.115572306
 20
13.8253037623
 10
343.0678834195
 20
13.2513630599
 10
343.9312028535
 20
12.6322871925
 10
344.6991388929
 20
11.972659581
 10
345.366006008
 20
11.2773638776
 10
345.9268669479
 20
10.5515478085
 10
346.3775692945
 20
9.8005850618
 10
346.7147762053
 20
9.0300355029
 10
346.9359911184
 20
8.2456040113
 10
347.0395762358
 20
7.4530982432
 10
347.0479097626
 20
7.1550235108
  0
LWPOLYLINE
  5
139
330
1F
100
AcDbEntity
  8
0
  6
Continuous
 62
     7
370
    25
100
AcDbPolyline
 90
       11
 70
   128
 43
0.0
 10
315.0479097626
 20
7.1550235108
 10
315.0488357814
 20
7.2543970914
 10
315.1228594269
 20
8.0480060245
 10
315.3147865733
 20
8.8350036276
 10
315.6231962592
 20
9.6095632456
 10
316.0458051274
 20
10.3659503101
 10
316.5794843294
 20
11.0985647961
 10
317.2202826913
 20
11.8019826821
 10
317.9634559662
 20
12.4709961082
 10
318.8035019592
 20
13.1006519331
 10
319.7342012636
 20
13.6862884054
  0
ENDSEC
  0
SECTION
  2
OBJECTS
  0
DICTIONARY
  5
C
330
0
100
AcDbDictionary
281
     1
  3
ACAD_GROUP
350
D
  3
ACAD_LAYOUT
350
1A
  3
ACAD_MLINESTYLE
350
17
  3
ACAD_PLOTSETTINGS
350
19
  3
ACAD_PLOTSTYLENAME
350
E
  3
ACAD_SCALELIST
350
47
  3
DWGPROPS
350
13A
  0
DICTIONARY
  5
D
102
{ACAD_REACTORS
330
C
102
}
330
C
100
AcDbDictionary
281
     1
  0
DICTIONARY
  5
1A
102
{ACAD_REACTORS
330
C
102
}
330
C
100
AcDbDictionary
281
     1
  3
Layout1
350
1E
  3
Layout2
350
26
  3
Model
350
22
  0
DICTIONARY
  5
17
102
{ACAD_REACTORS
330
C
102
}
330
C
100
AcDbDictionary
281
     1
  3
Standard
350
18
  0
DICTIONARY
  5
19
102
{ACAD_REACTORS
330
C
102
}
330
C
100
AcDbDictionary
281
     1
  0
ACDBDICTIONARYWDFLT
  5
E
102
{ACAD_REACTORS
330
C
102
}
330
C
100
AcDbDictionary
281
     1
  3
Normal
350
F
100
AcDbDictionaryWithDefault
340
F
  0
DICTIONARY
  5
47
102
{ACAD_REACTORS
330
C
102
}
330
C
100
AcDbDictionary
281
     1
  3
A0
350
48
  3
A1
350
49
  3
A2
350
4A
  3
A3
350
4B
  3
A4
350
4C
  3
A5
350
4D
  3
A6
350
4E
  3
A7
350
4F
  3
A8
350
50
  3
A9
350
51
  3
B0
350
52
  3
B1
350
53
  3
B2
350
54
  3
B3
350
55
  3
B4
350
56
  3
B5
350
57
  3
B6
350
58
  3
B7
350
59
  3
B8
350
5A
  3
B9
350
5B
  3
C0
350
5C
  3
C1
350
5D
  3
C2
350
5E
  3
C3
350
5F
  3
C4
350
60
  3
C5
350
61
  3
C6
350
62
  3
C7
350
63
  3
C8
350
64
  3
C9
350
65
  3
D0
350
66
  3
D1
350
67
  3
D2
350
68
  0
XRECORD
  5
13A
102
{ACAD_REACTORS
330
C
102
}
330
C
100
AcDbXrecord
280
     1
  1
DWGPROPS COOKIE
  2

  3

  4

  6

  7

  8
b.kav
  9

300
=
301
=
302
=
303
=
304
=
305
=
306
=
307
=
308
=
309
=
 40
0.0
 41
2459741.489385393
 42
2459741.489385579
  1

 90
        0
  0
LAYOUT
  5
1E
102
{ACAD_REACTORS
330
1A
102
}
330
1A
100
AcDbPlotSettings
  1

  2
none_device
  4

  6

 40
0.0
 41
0.0
 42
0.0
 43
0.0
 44
0.0
 45
0.0
 46
0.0
 47
0.0
 48
0.0
 49
0.0
140
0.0
141
0.0
142
1.0
143
1.0
 70
   688
 72
     1
 73
     0
 74
     5
  7

 75
    16
147
1.0
148
0.0
149
0.0
100
AcDbLayout
  1
Layout1
 70
     1
 71
     1
 10
0.0
 20
0.0
 11
420.0
 21
297.0
 12
0.0
 22
0.0
 32
0.0
 14
1.0000000000E+20
 24
1.0000000000E+20
 34
1.0000000000E+20
 15
-1.0000000000E+20
 25
-1.0000000000E+20
 35
-1.0000000000E+20
146
0.0
 13
0.0
 23
0.0
 33
0.0
 16
1.0
 26
0.0
 36
0.0
 17
0.0
 27
1.0
 37
0.0
 76
     0
330
1B
  0
LAYOUT
  5
26
102
{ACAD_REACTORS
330
1A
102
}
330
1A
100
AcDbPlotSettings
  1

  2
none_device
  4

  6

 40
0.0
 41
0.0
 42
0.0
 43
0.0
 44
0.0
 45
0.0
 46
0.0
 47
0.0
 48
0.0
 49
0.0
140
0.0
141
0.0
142
1.0
143
1.0
 70
   688
 72
     1
 73
     0
 74
     5
  7

 75
    16
147
1.0
148
0.0
149
0.0
100
AcDbLayout
  1
Layout2
 70
     1
 71
     2
 10
0.0
 20
0.0
 11
0.0
 21
0.0
 12
0.0
 22
0.0
 32
0.0
 14
0.0
 24
0.0
 34
0.0
 15
0.0
 25
0.0
 35
0.0
146
0.0
 13
0.0
 23
0.0
 33
0.0
 16
1.0
 26
0.0
 36
0.0
 17
0.0
 27
1.0
 37
0.0
 76
     0
330
23
  0
LAYOUT
  5
22
102
{ACAD_REACTORS
330
1A
102
}
330
1A
100
AcDbPlotSettings
  1

  2
none_device
  4
Letter_(8.50_x_11.00_Inches)
  6

 40
6.35
 41
6.35
 42
6.35000508
 43
6.35000508
 44
215.9
 45
279.4
 46
0.0
 47
0.0
 48
0.0
 49
0.0
140
0.0
141
0.0
142
1.0
143
1.0
 70
  1712
 72
     1
 73
     0
 74
     0
  7

 75
     0
147
1.0
148
0.0
149
0.0
100
AcDbLayout
  1
Model
 70
     1
 71
     0
 10
0.0
 20
0.0
 11
279.4
 21
215.9
 12
0.0
 22
0.0
 32
0.0
 14
0.0
 24
0.0
 34
0.0
 15
279.4
 25
215.9
 35
0.0
146
0.0
 13
0.0
 23
0.0
 33
0.0
 16
1.0
 26
0.0
 36
0.0
 17
0.0
 27
1.0
 37
0.0
 76
     0
330
1F
331
29
  0
MLINESTYLE
  5
18
102
{ACAD_REACTORS
330
17
102
}
330
17
100
AcDbMlineStyle
  2
Standard
 70
     0
  3

 62
   256
 51
90.0
 52
90.0
 71
     2
 49
0.5
 62
   256
  6
BYLAYER
 49
-0.5
 62
   256
  6
BYLAYER
  0
ACDBPLACEHOLDER
  5
F
102
{ACAD_REACTORS
330
E
102
}
330
E
  0
SCALE
  5
48
102
{ACAD_REACTORS
330
47
102
}
330
47
100
AcDbScale
 70
     0
300
1:1
140
1.0
141
1.0
290
     1
  0
SCALE
  5
49
102
{ACAD_REACTORS
330
47
102
}
330
47
100
AcDbScale
 70
     0
300
1:2
140
1.0
141
2.0
290
     0
  0
SCALE
  5
4A
102
{ACAD_REACTORS
330
47
102
}
330
47
100
AcDbScale
 70
     0
300
1:4
140
1.0
141
4.0
290
     0
  0
SCALE
  5
4B
102
{ACAD_REACTORS
330
47
102
}
330
47
100
AcDbScale
 70
     0
300
1:5
140
1.0
141
5.0
290
     0
  0
SCALE
  5
4C
102
{ACAD_REACTORS
330
47
102
}
330
47
100
AcDbScale
 70
     0
300
1:8
140
1.0
141
8.0
290
     0
  0
SCALE
  5
4D
102
{ACAD_REACTORS
330
47
102
}
330
47
100
AcDbScale
 70
     0
300
1:10
140
1.0
141
10.0
290
     0
  0
SCALE
  5
4E
102
{ACAD_REACTORS
330
47
102
}
330
47
100
AcDbScale
 70
     0
300
1:16
140
1.0
141
16.0
290
     0
  0
SCALE
  5
4F
102
{ACAD_REACTORS
330
47
102
}
330
47
100
AcDbScale
 70
     0
300
1:20
140
1.0
141
20.0
290
     0
  0
SCALE
  5
50
102
{ACAD_REACTORS
330
47
102
}
330
47
100
AcDbScale
 70
     0
300
1:30
140
1.0
141
30.0
290
     0
  0
SCALE
  5
51
102
{ACAD_REACTORS
330
47
102
}
330
47
100
AcDbScale
 70
     0
300
1:40
140
1.0
141
40.0
290
     0
  0
SCALE
  5
52
102
{ACAD_REACTORS
330
47
102
}
330
47
100
AcDbScale
 70
     0
300
1:50
140
1.0
141
50.0
290
     0
  0
SCALE
  5
53
102
{ACAD_REACTORS
330
47
102
}
330
47
100
AcDbScale
 70
     0
300
1:100
140
1.0
141
100.0
290
     0
  0
SCALE
  5
54
102
{ACAD_REACTORS
330
47
102
}
330
47
100
AcDbScale
 70
     0
300
2:1
140
2.0
141
1.0
290
     0
  0
SCALE
  5
55
102
{ACAD_REACTORS
330
47
102
}
330
47
100
AcDbScale
 70
     0
300
4:1
140
4.0
141
1.0
290
     0
  0
SCALE
  5
56
102
{ACAD_REACTORS
330
47
102
}
330
47
100
AcDbScale
 70
     0
300
8:1
140
8.0
141
1.0
290
     0
  0
SCALE
  5
57
102
{ACAD_REACTORS
330
47
102
}
330
47
100
AcDbScale
 70
     0
300
10:1
140
10.0
141
1.0
290
     0
  0
SCALE
  5
58
102
{ACAD_REACTORS
330
47
102
}
330
47
100
AcDbScale
 70
     0
300
100:1
140
100.0
141
1.0
290
     0
  0
SCALE
  5
59
102
{ACAD_REACTORS
330
47
102
}
330
47
100
AcDbScale
 70
     0
300
1/128" = 1'-0"
140
0.0078125
141
12.0
290
     0
  0
SCALE
  5
5A
102
{ACAD_REACTORS
330
47
102
}
330
47
100
AcDbScale
 70
     0
300
1/64" = 1'-0"
140
0.015625
141
12.0
290
     0
  0
SCALE
  5
5B
102
{ACAD_REACTORS
330
47
102
}
330
47
100
AcDbScale
 70
     0
300
1/32" = 1'-0"
140
0.03125
141
12.0
290
     0
  0
SCALE
  5
5C
102
{ACAD_REACTORS
330
47
102
}
330
47
100
AcDbScale
 70
     0
300
1/16" = 1'-0"
140
0.0625
141
12.0
290
     0
  0
SCALE
  5
5D
102
{ACAD_REACTORS
330
47
102
}
330
47
100
AcDbScale
 70
     0
300
3/32" = 1'-0"
140
0.09375
141
12.0
290
     0
  0
SCALE
  5
5E
102
{ACAD_REACTORS
330
47
102
}
330
47
100
AcDbScale
 70
     0
300
1/8" = 1'-0"
140
0.125
141
12.0
290
     0
  0
SCALE
  5
5F
102
{ACAD_REACTORS
330
47
102
}
330
47
100
AcDbScale
 70
     0
300
3/16" = 1'-0"
140
0.1875
141
12.0
290
     0
  0
SCALE
  5
60
102
{ACAD_REACTORS
330
47
102
}
330
47
100
AcDbScale
 70
     0
300
1/4" = 1'-0"
140
0.25
141
12.0
290
     0
  0
SCALE
  5
61
102
{ACAD_REACTORS
330
47
102
}
330
47
100
AcDbScale
 70
     0
300
3/8" = 1'-0"
140
0.375
141
12.0
290
     0
  0
SCALE
  5
62
102
{ACAD_REACTORS
330
47
102
}
330
47
100
AcDbScale
 70
     0
300
1/2" = 1'-0"
140
0.5
141
12.0
290
     0
  0
SCALE
  5
63
102
{ACAD_REACTORS
330
47
102
}
330
47
100
AcDbScale
 70
     0
300
3/4" = 1'-0"
140
0.75
141
12.0
290
     0
  0
SCALE
  5
64
102
{ACAD_REACTORS
330
47
102
}
330
47
100
AcDbScale
 70
     0
300
1" = 1'-0"
140
1.0
141
12.0
290
     0
  0
SCALE
  5
65
102
{ACAD_REACTORS
330
47
102
}
330
47
100
AcDbScale
 70
     0
300
1-1/2" = 1'-0"
140
1.5
141
12.0
290
     0
  0
SCALE
  5
66
102
{ACAD_REACTORS
330
47
102
}
330
47
100
AcDbScale
 70
     0
300
3" = 1'-0"
140
3.0
141
12.0
290
     0
  0
SCALE
  5
67
102
{ACAD_REACTORS
330
47
102
}
330
47
100
AcDbScale
 70
     0
300
6" = 1'-0"
140
6.0
141
12.0
290
     0
  0
SCALE
  5
68
102
{ACAD_REACTORS
330
47
102
}
330
47
100
AcDbScale
 70
     0
300
1'-0" = 1'-0"
140
12.0
141
12.0
290
     0
  0
ENDSEC
  0
EOF
